Cifra Club

Last Man Standing Afinação Padrão

HammerFall

Cifra: Principal (violão e guitarra)
tom: G
Está é uma versao para afinação padrão (EADGBe)

intro

E|----------------------------|
B|----------------------------|
G|-7----5-7---7-5---7-7-------|
D|-7----5-7---7-5---7-7-7-7---|
A|-5----3-5---5-3---5-5-7-7---|
E|----------------------5-5---|

E|--------------------------------|
B|--------------------------------|
G|-7----5-7---7-5---7-7-----------|
D|-7----5-7---7-5---7-7-7-7----8--|
A|-5----3-5---5-3---5-5-7-7----8--|
E|----------------------5-5----6--|

1º Versos Som Limpo

E|-1---0--1--1--1--0----------5------5--1----|
B|-3---2--3--3--1--1--------6---6-------3----|
G|-2---2--2--3--2--0------7-------7-----3----|
D|-0---2--0--3--3--2----7---------------3----|
A|-----0-----1--3--3--5-----------------1----|
E|--------------1----------------------------|

E|-1---0--1--1--1--0----------5------5------|
B|-3---2--3--3--1--1--------6---6-----------|
G|-2---2--2--3--2--0------7-------7---------|
D|-0---2--0--3--3--2----7-------------------|
A|-----0-----1--3--3--5---------------------|
E|--------------1---------------------------|

passagem para o Refrão

E|------------------|
B|------------------|
G|-3-3-3-3-7-7-7-7--|
D|-3-3-3-3-7-7-7-7--|
A|-1-1-1-1-5-5-5-5--|
E|------------------|

Refrão igual a intro

E|----------------------------|
B|----------------------------|
G|-7----5-7---7-5---7-7-------|
D|-7----5-7---7-5---7-7-7-7---|
A|-5----3-5---5-3---5-5-7-7---|
E|----------------------5-5---|

E|--------------------------------|
B|--------------------------------|
G|-7----5-7---7-5---7-7-----------|
D|-7----5-7---7-5---7-7-7-7----8--|
A|-5----3-5---5-3---5-5-7-7----8--|
E|----------------------5-5----6--|


2º Versos Som Limpo igual ao 1º

E|-1---0--1--1--1--0----------5------5--1----|
B|-3---2--3--3--1--1--------6---6-------3----|
G|-2---2--2--3--2--0------7-------7-----3----|
D|-0---2--0--3--3--2----7---------------3----|
A|-----0-----1--3--3--5-----------------1----|
E|--------------1----------------------------|

E|-1---0--1--1--1--0----------5------5------|
B|-3---2--3--3--1--1--------6---6-----------|
G|-2---2--2--3--2--0------7-------7---------|
D|-0---2--0--3--3--2----7-------------------|
A|-----0-----1--3--3--5---------------------|
E|--------------1---------------------------|

passagem para o Chorus

E|------------------|
B|------------------|
G|-3-3-3-3-7-7-7-7--|
D|-3-3-3-3-7-7-7-7--|
A|-1-1-1-1-5-5-5-5--|
E|------------------|

Refrão

E|----------------------------|
B|----------------------------|
G|-7----5-7---7-5---7-7-------|
D|-7----5-7---7-5---7-7-7-7---|
A|-5----3-5---5-3---5-5-7-7---|
E|----------------------5-5---|

E|--------------------------------|
B|--------------------------------|
G|-7----5-7---7-5---7-7-----------|
D|-7----5-7---7-5---7-7-7-7----8--|
A|-5----3-5---5-3---5-5-7-7----8--|
E|----------------------5-5----6--|

solo

part 1

E|-------------------------------------|
B|----------------------13-11-9-11~----|
G|-\10~------10-12-13~-----------------|
D|--------10---------------------------|
A|-------------------------------------|
E|-------------------------------------|
PM        .

part 2

E|-------------------------------------|
B|-------------------------------------|
G|-8-10-12--13--13-12-13-12h13p12-10~--|
D|-------------------------------------|
A|-------------------------------------|
E|-------------------------------------|
PM .

part 3

E|------------------------------6/11-15-16-18~-18b-18-16-15\----|
B|-\8-9-11--13-8/13-15-10/15-16---------------------------------|
G|--------------------------------------------------------------|
D|--------------------------------------------------------------|
A|--------------------------------------------------------------|
E|--------------------------------------------------------------|

Refrão 2x

E|----------------------------|
B|----------------------------|
G|-7----5-7---7-5---7-7-------|
D|-7----5-7---7-5---7-7-7-7---|
A|-5----3-5---5-3---5-5-7-7---|
E|----------------------5-5---|

E|--------------------------------|
B|--------------------------------|
G|-7----5-7---7-5---7-7-----------|
D|-7----5-7---7-5---7-7-7-7----8--|
A|-5----3-5---5-3---5-5-7-7----8--|
E|----------------------5-5----6--|

Final

E|-----------------------------------------------------|
B|-----------------------------------------------------|
G|-----------------------------------------------------|
D|-8--3--6--8--6--3--6--8--6--3--6--8--6--3--6--8--6---|
A|-8--3--6--8--6--3--6--8--6--3--6--8--6--3--6--8--6---|
E|-6--1--4--6--4--1--4--6--4--1--4--6--4--1--4--6--4---|

solo final


E|-4--3--4-1--3-4--3--3-3-3-0-1--3-1---|
B|-------------------------------------|
G|-------------------------------------|
D|-------------------------------------|
A|-------------------------------------|
E|-------------------------------------|
00:00 / 00:00
Outros vídeos desta música
Repetir
Outros vídeos desta música
Compositor não encontrado.
Colaboração e revisão:
  • Lucas
379 exibições
    • ½ Tom
    • A
    • Bb
    • B
    • C
    • Db
    • D
    • Eb
    • E
    • F
    • F#
    • G
    • Ab
  • Adicionar à lista

    0 comentários

    Ver todos os comentários

    Conseguiu tocar?

    2 Tocaram 0 Ainda não

    Grave um vídeo tocando Last Man Standing Afinação Padrão e nos envie!

    00:00 / 00:00

    Cifra Club Pro

    Aproveite o Cifra Club com benefícios exclusivos e sem anúncios
    Cifra Club Pro
    Aproveite o Cifra Club com benefícios exclusivos e sem anúncios
    OK