Cifra Club

A Esperança da Igreja

Harpa Cristã

Cifra: Principal
exibições 8.420
Tom: A
E|---------6-|-6-------6-|-6-------11-|-11--10--8--|------------|------------|
B|---------8-|-8---8---8-|-8-------8--|------------|-11------11-|-11--9---8--|
G|---------8-|-8---8---8-|-8----------|-8-------8--|-0-------12-|-12--10--8--|
D|-----------|-----8-----|---------8--|-10--8------|-13---------|---------8--|
A|---------6-|-6-------6-|-6----------|---------11-|---------10-|-10--11--10-|
E|-----------|-----------|---------11-|-11------11-|-11------11-|-11--13-----|

E|------------|------------|---------6-|-6-------6-|-6-------11-|-11--10--8--|
B|-----8---9--|-8---11--8--|-6-------6-|-8---8---8-|-8-------8--|------------|
G|-10--8---10-|-----8---8--|-7-------7-|-8---8---8-|-8----------|-8-------8--|
D|-8-------8--|-8-------8--|-8-------8-|-----8-----|---------8--|-10--8------|
A|-11--10--8--|-----10-----|-----------|-6-------6-|-6----------|---------11-|
E|------------|-11------11-|-6---------|-----------|---------11-|-11------11-|

E|------------|------------|-1---0------|-----------|-----------|------------|
B|-11------11-|-11--9---8--|-1---8---9--|-8-------6-|---------6-|-6----8--9--|
G|-0-------12-|-12--10--8--|-1---0---10-|-8-------7-|-8-------7-|-7----8--10-|
D|-13---------|---------8--|-----8---6--|-8-------6-|-5-------8-|-8-------8--|
A|---------10-|-10--11--10-|---------8--|-----------|-6---------|------------|
E|-11------11-|-11--13-----|------------|---------6-|---------6-|-6-------6--|

E|---------6-|-6-------8-|-6-------8--|-11------8-|-6----4--3-|-4-----------|
B|-8-------8-|-8---8-----|------------|-9-------9-|-8----6--4-|-----6---6---|
G|-8-------8-|-8---8---8-|-8-------8--|---------8-|-8----3--3-|-5---5---7---|
D|-8---------|-----8---6-|-5----------|-10--------|-----------|-6-------8-6-|
A|-6-------6-|-6-------6-|-6-------11-|-11------8-|-6----6--6-|-8-----------|
E|-----------|-----------|------------|-----------|-----------|---------6---|

E|----------|
B|----------|
G|-0--------|
D|-13-------|
A|----------|
E|-11-------|
Acordes para:
    Colaboração e revisão:
    • Helon Oliveira

    0 comentários

      mostrar mais comentários

      Conseguiu tocar?

      0tocaram0ainda não

      Grave um vídeo tocando A Esperança da Igreja e mande pra gente!

      00:00 / 00:00
      outros vídeos desta música
      repetirqualidadeautomática
      Outro vídeos desta música
        00:00 / 00:00
        automática
        OK