Cifra Club

Black Friday Cifra Club

Alegrai-vos, Ó Remidos

Harpa Cristã

Cifra: Principal (violão e guitarra)
tom: Bb
E|-----6-------6-|-----6-------6-|-3---6-6-4------|--------------|-3---6---4---6-|
B|-8-------9-----|-8-------6-----|-4------------6-|-4---3-3-4----|-4-------3-----|
G|-8-------7-----|-8-------7-----|-3---0---5------|-3-------3----|-3-------3-----|
D|-8-------8-----|-8-------8-----|---------6------|-5---3---5----|---------------|
A|-6-------------|-6-------------|-6--------------|---------6----|-6-------------|
E|---------6-----|---------6-----|---------4------|-6------------|---------6-----|

E|-3---6-------6-|-3---6-6-4------|--------------|-11--10----11-----|
B|-4-------6-----|-4------------6-|-4---3-3------|-8---9---------11-|
G|-3-------7-----|-3---0---5------|-3-------8----|--------10-8---12-|
D|---------8-----|---------6------|-5---3---8----|-8------8--8---8--|
A|-6-------------|-6--------------|---------10---|-----8-----10-----|
E|---------6-----|---------4------|-6-------11---|-11------------11-|

E|-4--------------|-11--10----11-----|-4---1--------|---------------|
B|-6---6---8---11-|-8---9-----8---11-|-6---3---4----|-4-----4-4---4-|
G|-7---7---8---12-|--------10-----12-|-5---3-1------|-3-------------|
D|-----8---8---8--|-8------8--8---8--|---------5----|-5-------5-----|
A|----------------|-----8-----10-----|-----1---6----|-6---5---3-----|
E|-6---6---11--11-|-11------------11-|-4------------|-------------6-|

E|-1-----1-1---1-|-----------------|--------------|---------------|
B|-4-------3-----|-------------8-6-|-4---3---4----|-4-----4-4---4-|
G|-5-------3-----|-8---8---8-------|-3-------3----|-3-------------|
D|---------------|-----8---10--6---|-5---3---5----|-5-------5-----|
A|-----0---1-----|-10--------------|---------6----|-6---5---3-----|
E|---------------|-11--13--8---4---|-6------------|-------------6-|

E|-1-----1-1---1-|-----------------|--------------|--------------|
B|-4-------3-----|-------------8-6-|-4---3--------|--------------|
G|-5-------3-----|-8---8---8-------|-3-------0----|--------------|
D|---------------|-----8---10--6---|-5---3---13---|--------------|
A|-----0---1-----|-10--------------|---------13---|--------------|
E|---------------|-11--13--8---4---|-6-------11---|--------------|

00:00 / 00:00
Outros vídeos desta música
Repetir
Outros vídeos desta música
Compositor não encontrado.
Colaboração e revisão:
  • Helon Oliveira
2.638 exibições
    • ½ Tom
    • A
    • Bb
    • B
    • C
    • Db
    • D
    • Eb
    • E
    • F
    • F#
    • G
    • Ab
  • Adicionar à lista

    0 comentários

    Ver todos os comentários

    Entre para oCifra Club PRO

    Tenha acesso a benefícios exclusivos no App e no Site

    • Chega de anúncios

    • Prioridade de compra em lançamentos

    • Mais recursos no app do Afinador

    • Atendimento Prioritário

    • Descontos nos produtos Cifra Club

    • Ajude a produzir mais conteúdo

    00:00 / 00:00

    Cifra Club Pro

    Aproveite o Cifra Club com benefícios exclusivos e sem anúncios
    Cifra Club Pro
    Aproveite o Cifra Club com benefícios exclusivos e sem anúncios
    OK