Cifra Club

Black Friday Cifra Club

As Pisadas Do Mestre

Harpa Cristã

Cifra: Principal (violão e guitarra)
tom: Db
E|---------------------|-----9--11-9------|--------------------|--------------|
B|-9---9--11-9---------|-9-------------11-|-9---9--11-9------6-|-6-------4----|
G|-10--10-11-10--10-11-|-10--10-11-10--11-|-10--10-11-10--11-6-|-6---8-6-5----|
D|-11--11-11-11--11-13-|-11------------11-|-11--11-11-11--13-6-|-6---6-5-6----|
A|---------------11-11-|-----11-11-11-----|---------------11---|--------------|
E|-9---9--9--9---9--9--|-9---9--9--9---9--|-9---9--9--9---9--9-|-9---8-6-4----|

E|---------4---4-4-|-6---9-11-9---6-|-4-4--4--6-11--9-|-8---6-8-9---9-8-|
B|-6---6-7-6---6-6-|-7---7-7--7---7-|-6-6--6--7-7---7-|-7---7-7-6---6-9-|
G|-6---6-8-6---6-6-|-6------------6-|-6-6--6--6-------|-------------6---|
D|-6---6-6---------|-----8-8--8-----|-----------8---8-|-6---6-6-6-------|
A|-4---4-4-4---4-4-|-9---9-9--9---9-|-4-4--4--9-9---9-|-----------------|
E|-----------------|----------------|-----------------|---------9---9---|

E|-6-6-6-6-6---6-6-|-4---4-4-4-----|--------------|---------4---4-|
B|-7-7-7-7-7---7-7-|-6---6-6-6---6-|-7-7-7-6-4----|-6-6-6-7-6---6-|
G|-6-6-6-6-6---6-6-|-6---6-6-6---6-|-8-8-8-6-5----|-6-6-6-8-6---6-|
D|-----------------|-------------6-|-6-6-6-6-6----|-6-6-6-6-------|
A|-9-9-9-9-9---9-9-|-4---4-4-4---4-|--------------|-4-4-4-4-4---4-|
E|-----------------|---------------|-4-4-4-4-4----|---------------|

E|-6-6-6-6-9---9-6-|-4---4-4-4-----|-8---8---6---8-|-9------------|
B|-7-7-7-7-7---7-7-|-6---6-6-6---6-|-7---7---7---7-|-6------------|
G|-6-6-6-6-------6-|-6---6-6-6---6-|-8---8---8-----|--------------|
D|---------8---8---|---------------|-6---6---6---6-|-6------------|
A|-9-9-9-9-9---9-9-|-4---4-4-4---4-|---------------|--------------|
E|-----------------|---------------|---------------|-9------------|

00:00 / 00:00
Outros vídeos desta música
Repetir
Outros vídeos desta música
Compositor não encontrado.
Colaboração e revisão:
  • Helon Oliveira
2.555 exibições
    • ½ Tom
    • A
    • Bb
    • B
    • C
    • Db
    • D
    • Eb
    • E
    • F
    • F#
    • G
    • Ab
  • Adicionar à lista

    0 comentários

    Ver todos os comentários

    Entre para oCifra Club PRO

    Tenha acesso a benefícios exclusivos no App e no Site

    • Chega de anúncios

    • Prioridade de compra em lançamentos

    • Mais recursos no app do Afinador

    • Atendimento Prioritário

    • Descontos nos produtos Cifra Club

    • Ajude a produzir mais conteúdo

    00:00 / 00:00

    Cifra Club Pro

    Aproveite o Cifra Club com benefícios exclusivos e sem anúncios
    Cifra Club Pro
    Aproveite o Cifra Club com benefícios exclusivos e sem anúncios
    OK