Cifra Club

Black Friday Cifra Club

Confiança Em Jesus

Harpa Cristã

Cifra: Principal (violão e guitarra)
tom: G
E|---------------|-7-------5-7-|---------7-8--|-10---12-10-7--|-5-------------|
B|------------8--|-8----8--7-7-|-8-------8-8--|-8----8--8--8--|-7-------8--10-|
G|---------7--7--|-7----0--5-7-|-0-------0-0--|-0----0--0--7--|-7-------7--7--|
D|---------9--9--|------9--0-0-|-9------------|-9----10-9-----|---------9--10-|
A|---------10-10-|-10----------|-----------12-|------------10-|-5-------10-10-|
E|---------------|-------------|--------------|---------------|---------------|

E|-7----------7--|-3-----------|------3--7-5-|-3--------|
B|-8----8--10----|-3-------5-5-|-3----3--3-3-|-3--------|
G|-7----7--7--7--|-4-------5-5-|-4----4----5-|-4--------|
D|------9--10----|-5-------5-5-|-5-----------|-5--------|
A|-10---10-------|---------3-3-|-5----5--5-5-|----------|
E|---------10-10-|-------------|-------------|-3--------|

00:00 / 00:00
Outros vídeos desta música
Repetir
Outros vídeos desta música
Compositor não encontrado.
Colaboração e revisão:
  • Helon Oliveira
1.521 exibições
    • ½ Tom
    • A
    • Bb
    • B
    • C
    • Db
    • D
    • Eb
    • E
    • F
    • F#
    • G
    • Ab
  • Adicionar à lista

    0 comentários

    Ver todos os comentários

    Entre para oCifra Club PRO

    Tenha acesso a benefícios exclusivos no App e no Site

    • Chega de anúncios

    • Prioridade de compra em lançamentos

    • Mais recursos no app do Afinador

    • Atendimento Prioritário

    • Descontos nos produtos Cifra Club

    • Ajude a produzir mais conteúdo

    00:00 / 00:00

    Cifra Club Pro

    Aproveite o Cifra Club com benefícios exclusivos e sem anúncios
    Cifra Club Pro
    Aproveite o Cifra Club com benefícios exclusivos e sem anúncios
    OK