Cifra Club

Derrama Teu Espírito

Harpa Cristã

Cifra: Principal (violão e guitarra)
Selo Cifra Club: esta cifra foi revisada para atender aos critérios oficiais da nossa Equipe de Qualidade.
tom: D
E|-----------------|----------------------0--|-----------------|-5-7-9-7-5-------|
B|--------------10-|-10-10-12-10-7-----------|--------------10-|---3-5-----5-7-8-|
G|--------------7--|-7--7--7--7--7-----7--0--|-0-------0----7--|-6-----7-6-6-7-9-|
D|--------------0--|-0--0--0--0--7--7--7--0--|-12------11---0--|-5-5-7-7-7-7-7-7-|
A|--------------9--|-9--9--10-9-----9--9--12-|-12------12---9--|-7-----0-0-0-0---|
E|-----------------|-------------10-10-10----|-12------12------|---3-5---------9-|

E|---------10-10-10-2-|-3-5---7-7----|------------10-9-7-|----------------|
B|-7----10-7--7--7--3-|-3-3---3-3----|-10---10-10--------|-10-10-8-8-7----|
G|-7----11-7--7--7--2-|-2-2----------|-11---11-11-11-9-7-|-11-11-9-9-7----|
D|-7----0--0--0--0--0-|-0-4---5------|-0----0--0--0--7-7-|-7--7--7-7-7----|
A|------9-------------|--------------|-12---12-12-12-0-0-|-0--0--0--------|
E|-10-----------------|-----3-3-3----|-------------------|---------9-10---|

E|---------10-10-10-2-|-3-5---7-7----|------------10-9-7-|---------0------|
B|------10-7--7--7--3-|-3-3---3-3----|-10---10-10--------|-10-10-8-2-3----|
G|------11-7--7--7--2-|-2-2----------|-11---11-11-11-9-7-|-11-11-9-0-2----|
D|------0--0--0--0--0-|-0-4---5------|-0----0--0--0--7-7-|-7--7--7---0----|
A|------9-------------|--------------|-12---12-12-12-0-0-|-0--0--0-0------|
E|--------------------|-----3-3-3----|-------------------|----------------|

Outros vídeos desta música
    9.688 exibições
      • ½ Tom
      • A
      • Bb
      • B
      • C
      • Db
      • D
      • Eb
      • E
      • F
      • F#
      • G
      • Ab
    • Adicionar à lista

    Afinação da cifra

    Afinador online

      0 comentários

      Ver todos os comentários

      Entre para o Cifra Club PRO

      Tenha acesso a benefícios exclusivos no App e no Site

      • Chega de anúncios

      • Badges exclusivas

      • Mais recursos no app do Afinador

      • Atendimento Prioritário

      • Aumente seu limite de lista

      • Ajude a produzir mais conteúdo

      Cifra Club Pro

      Aproveite o Cifra Club com benefícios exclusivos e sem anúncios
      Cifra Club Pro
      Aproveite o Cifra Club com benefícios exclusivos e sem anúncios
      Ops (: Contenido disponible sólo en portugués.
      OK