Cifra Club

Em Meu Lugar

Harpa Cristã

Cifra: Principal (violão e guitarra)
Selo Cifra Club: esta cifra foi revisada para atender aos critérios oficiais da nossa Equipe de Qualidade.
tom: G
E|----------------------8---------|-1-4--3-1-------3--1-----|
B|----------8-----8--11----11-8---|-3-3--4-3-----4-4--3-----|
G|-8-----8--8--8--8--8--8--8--8---|-3-3--3-3-----0-3--1-8---|
D|-8--8--8--8-----8-----------8---|-------------------1-----|
A|-10-10-10----10----10-11-10-----|-1-1--1-1-----6-6----10--|
E|-11-11-11-11-11-11-11-11-11-11--|---------------------11--|

E|----------------------8---------|-1-4-3-1--------------|----------------------|
B|----------8-----8--11----11-8---|-3-3-3-3-1-3----------|----------------------|
G|-8-----8--8--8--8--8--8--8--8---|-3-3-3-1-1-3-0--------|----------------------|
D|-8--8--8--8-----8-----------8---|-----------6-13-------|----------------------|
A|-10-10-10----10----10-11-10-----|-1-1-1-1-1---13-------|----------------------|
E|-11-11-11-11-11-11-11-11-11-11--|-----------6-11-------|----------------------|

Outros vídeos desta música
1.001 exibições
    • ½ Tom
    • A
    • Bb
    • B
    • C
    • Db
    • D
    • Eb
    • E
    • F
    • F#
    • G
    • Ab
  • Adicionar à lista

Afinação da cifra

Afinador online

    0 comentários

    Ver todos os comentários

    Entre para o Cifra Club PRO

    Tenha acesso a benefícios exclusivos no App e no Site

    • Chega de anúncios

    • Mais recursos no app do Afinador

    • Atendimento Prioritário

    • Aumente seu limite de lista

    • Ajude a produzir mais conteúdo

    Cifra Club Pro

    Aproveite o Cifra Club com benefícios exclusivos e sem anúncios
    Cifra Club Pro
    Aproveite o Cifra Club com benefícios exclusivos e sem anúncios
    OK