Cifra Club

Eu Navegarei

Harpa Cristã

Tab de baixo: Iniciante
G|---------------------------------------------------------------|
D|---------------------------------------------------------------|
A|----------------------------------------5--5-5-----------------|
E|-5--5-5--5--5-5--3--3-3--3--3-3--1--1-1---------0--0-0--0--0-0-|

G|---------------------------------------------------------------|
D|---------------------------------------------------------------|
A|----------------------------------------5--5-5-----------------|
E|-5--5-5--5--5-5--3--3-3--3--3-3--1--1-1---------0--0-0--0--0-0-|

.
00:00 / 00:00
Outros vídeos desta música
Repetir
Outros vídeos desta música
Composição de Azmaveth Carneiro Da Silva
Colaboração e revisão:
  • Mathias Lavall
2.315 exibições

0 comentários

Ver todos os comentários

Entre para oCifra Club PRO

Tenha acesso a benefícios exclusivos no App e no Site

  • Chega de anúncios

  • Prioridade de compra em lançamentos

  • Mais recursos no app do Afinador

  • Atendimento Prioritário

  • Descontos nos produtos Cifra Club

  • Ajude a produzir mais conteúdo

00:00 / 00:00

Cifra Club Pro

Aproveite o Cifra Club com benefícios exclusivos e sem anúncios
Cifra Club Pro
Aproveite o Cifra Club com benefícios exclusivos e sem anúncios
OK