Cifra Club

Glória ao Salvador

Harpa Cristã

Cifra: Principal (violão e guitarra)
Tom: Ab
E|-8---8-6-4---4-3-|--------------|-8---8--9--11--11-8--|-----8---6----|
B|-4---4-------4-4-|-6---9--------|---------------------|-9-------4----|
G|-------6-5-------|-6---6---8----|-8---8--8--8---8--8--|-8---8---0----|
D|-6---6-6-6---6-6-|-6---6---10---|-----------10--10----|-10-----------|
A|---------------3-|-----8---11---|-11--11-11-11--11-11-|-11--11--6----|
E|-4---4-4-4---8---|-9------------|---------------------|--------------|

E|-8---8-6-4---4-3-|--------------|-8-------8------|-4------------|
B|-4---4-------4-4-|-6---9--------|------9------11-|--------------|
G|-------6-5-------|-6---6---8----|-8-------8---0--|-5------------|
D|-6---6-6-6---6-6-|-6---6---10---|------10-----11-|-6------------|
A|---------------3-|-----8---11---|-11---11-11-----|--------------|
E|-4---4-4-4---8---|-9------------|-11---11-11--11-|-4------------|

E|-4----6--4-----|---------4----|-8----9--8---4-|-6----8--6----|-8---8-6-4---4-3-|
B|-6----6--6---6-|-4----6-------|-4-----------4-|-4------------|-4---4-------4-4-|
G|-------------6-|-5----6--5----|------8--8-----|-0-------0----|-------6-5-------|
D|-6----6--6---6-|-6------------|-6----6--6---6-|------6-------|-6---6-6-6---6-6-|
A|-4----4--4---4-|--------------|---------------|-6------------|---------------3-|
E|---------------|-4------------|-------------8-|--------------|-4---4-4-4---8---|

E|--------------|-8-------8------|-4------------|
B|-6---9--------|------9------11-|-1------------|
G|-6---6---8----|-8-------8---0--|-1------------|
D|-6---6---10---|------10-----11-|--------------|
A|-----8---11---|-11---11-11-----|--------------|
E|-9------------|-11---11-11--11-|-4------------|
exibições 1.138
Acordes para:
    Colaboração e revisão:
    • Helon Oliveira

    0 comentários

    mostrar mais comentários

    Conseguiu tocar?

    0 tocaram 0 ainda não

    Grave um vídeo tocando Glória ao Salvador e mande pra gente!

    00:00 / 00:00
    outros vídeos desta música
    repetir qualidade Automático
    Outros vídeos desta música
    00:00 / 00:00
    Automático
    OK