Cifra Club

Glória Indizível

Harpa Cristã

Cifra: Principal (violão e guitarra)
exibições 1.129
Tom: C
E|--------------3---2-3-5-7-10-|-8----0---8-8-8-7-8--10-8--5-|
B|----------5-6-5---4-5-6-6-6--|-5----8---5-5-6-6----0-----3-|
G|----------5-7-5---5-5-4-0-0--|-0----0---0-0---0-10-10----4-|
D|----------5-5---------5-7----|--------------7---7-----10-3-|
A|----------3-3-3---3-3--------|--------------8-8-8--8--12---|
E|-----------------------------|-8----8---8-8-----------13---|

E|-3------------3---2-3-5-7-10-|-0----0---0--0---------------------|
B|-5--------5-6-5---4-5-6-6----|-13---8---13-13-12--10-12-15-13-10-|
G|-5--------5-7-5---5-5-4-0-10-|-0----0---0--0--7---7--7--11-11-11-|
D|----------5-5---------5-7----|----------------0---0--0--0--0--10-|
A|-3--------3-3-3---3-3-----10-|----------------10--9--10-12-12----|
E|-----------------------------|-8----8---8--8------------------10-|

E|-3--------3-3-5----------------|------8---0-----------12-10----|
B|----------3-3-6---6-6----8--10-|-8--------13-13-12-13----0--13-|
G|-4--------4-4-5-------10-10-10-|-9----9------11-10-11-11-11-11-|
D|----------5-5-----7-7-7--9--10-|-10---10--10-0--0--0--10-0--0--|
A|--------------8---8-8-8--8--8--|-------------12-11-12-------12-|
E|-3-----------------------------|-8----8---8-----------10-------|

E|-7----5-------------------0-----0--|-10-------5--3-3-3-3-1----|
B|-0----6---8--8--8---7--8--13-12-13-|------10--3--5-5-5-3-3--3-|
G|------5---10-10-9---8--9--0--0--0--|-7----7------4-4-4-2-2--4-|
D|----------12-12-10--10-10----12----|-7----7-----------------5-|
A|-----------------------------------|-8----8-------------------|
E|-3----5---7--7--8---8--8--8--8--8--|----------1--3-3-3-3-3--3-|

E|----------3--3---3-3-3-3-3-|-5--------5--5---5-5-10-10-8--|
B|----------5--5---5-5-5-5-5-|-6--------6--7---7-7-7--7--10-|
G|-5--------5--5---5-5-5-5-5-|-5--------5--7---7-7-------7--|
D|-2-------------------------|-3--------3--0---0-0-7--7-----|
A|-3--------3--3---3-3-3-3-3-|---------------------------9--|
E|---------------------------|---------------------10-10----|

E|-7-----------------7--8--10-12-|-13----------3-3-3-3-5-7-|
B|-8--------8--8--10----------8--|-10---10--10-5-5-5-6-6-6-|
G|-7--------10-9--10-7--9--10----|------10--10-5-5-5-4-5-0-|
D|----------9--10-10-10-10-10-10-|-10---10--10-5-5-5-5-5---|
A|-10-------10-------------------|-------------------------|
E|-------------8--8--8--8--8--8--|-13---13--13-----------3-|

E|-0--------0--0--------|
B|-13----------13-------|
G|-0--------12-0--------|
D|-10-------10-10-------|
A|----------------------|
E|-8--------8--8--------|
Acordes para:
    Colaboração e revisão:
    • Gabriel José
    • Helon Oliveira

    0 comentários

    mostrar mais comentários

    Conseguiu tocar?

    0 tocaram 1 ainda não

    Grave um vídeo tocando Glória Indizível e mande pra gente!

    00:00 / 00:00
    outros vídeos desta música
    repetir qualidade Automático
    Outro vídeos desta música
    00:00 / 00:00
    Automático
    OK