Cifra Club

Gozo Em Jesus

Harpa Cristã

Cifra: Principal
exibições 1.990
Tom: A
E|-8-6-4-6-8-----|-----9---8----|-8---6-------6-8-|-6---4--------|-8-6-4-6-8-----|
B|-4-------4---4-|-6---6---4----|-4-------4-----4-|---------4----|-4-------4---4-|
G|---6-5-6-----5-|-6------------|-----6---6---6---|-6---5---5----|---6-5-6-----5-|
D|-6-6-----6---6-|-6---6---6----|-6---5---5---5-5-|-6---6---6----|-6-6-----6---6-|
A|-----6-6-------|--------------|-6---6---6---6-6-|--------------|-----6-6-------|
E|-4-4-4-4-4---4-|-9---9---4----|-----------------|-4---4---4----|-4-4-4-4-4---4-|

E|-----9---8----|-8---6-------6-|-4------------|-11-13-11-9--8------|
B|-6---6---4----|-4-------4-----|--------------|-9--9--9--9--9---9--|
G|-6------------|-----6---6---6-|-5------------|----------10-8---8--|
D|-6---6---6----|-6---5---5---5-|-6------------|-10-10-10--------10-|
A|--------------|-6---6---6---6-|--------------|-11----11----11--11-|
E|-9---9---4----|---------------|-4------------|--------------------|

E|-9----9-----9---------|-9--11-9--8------------|-8-----8-----8----|
B|----------------------|-------------11--------|-------------4----|
G|-8----8-----8---------|-8--8--8--8--0---8-----|-8-----8----------|
D|-8----8-----8---------|-8--8--8-----13-----8--|-------------6----|
A|----8-10-11---11-10-8-|----------11-----11-10-|-11-11-11-11------|
E|-11-------------------|-11----11----11--13----|-------11-8--4----|

E|-8---6---6---3-4-|-8---6---6---3-|-6---4---3---1-|---------------|
B|-----------6-4-6-|-9---8---8---4-|-3---3---3---3-|-4-------------|
G|-7---7---7-7-3-7-|-8---8---8---3-|-3---5---3---1-|-0---3-------0-|
D|-6---6-----8-----|---------------|---------------|---------6-----|
A|---------8-------|-----6---6---6-|-------------1-|-6---4---3-----|
E|-6---6---6-6-6-6-|-11------------|-6---6---6-----|-------------6-|

E|-8-6-4-6-8-----|-----9---8----|-8---6-------6-|-4------------|
B|-4-------4---4-|-6---6---4----|---------4-----|--------------|
G|---6-5-6-----5-|-6------------|-6---6---6---6-|-5------------|
D|-6-6-----6---6-|-6---6---6----|-6---5---5---5-|-6------------|
A|-----6-6-------|--------------|-6---6---6---6-|--------------|
E|-4-4-4-4-4---4-|-9---9---4----|---------------|-4------------|
Acordes para:
    Colaboração e revisão:
    • Helon Oliveira

    0 comentários

      mostrar mais comentários

      Conseguiu tocar?

      0tocaram0ainda não

      Grave um vídeo tocando Gozo Em Jesus e mande pra gente!

      00:00 / 00:00
      outros vídeos desta música
      repetirqualidadeAutomático
      Outro vídeos desta música
        00:00 / 00:00
        OK