Cifra Club

Louvarei Ao Meu Amado

Harpa Cristã

Cifra: Principal (violão e guitarra)
Selo Cifra Club: esta cifra foi revisada para atender aos critérios oficiais da nossa Equipe de Qualidade.
tom: G
E|---------0-0-|-0---0---0----|-7---7------7-|-9---9---7-----|-7---7---9--10-|
B|-------------|-10--10--9-10-|-9---9---10-9-|-10--10--10-10-|-9---9---10-0--|
G|---------6-6-|---------7-9--|-9---9---9--9-|-9---9---8--8--|-9---9------13-|
D|---------7-7-|-7---7-----11-|---------11-9-|-7---7---------|---------7-----|
A|-------------|-----------0--|-7---7--------|---------9--9--|-7---7------12-|
E|-------------|-9---9---7----|--------------|---------------|---------------|

E|-12--12--9----|---------7--10-|-0-------0-|-0--------|
B|-10--10----10-|-7---7---0--0--|---------9-|-10-------|
G|---------9-9--|-7---7---11-11-|-6-------7-|-6--------|
D|-11--11--7-7--|-7---7---0--0--|-----------|-7--------|
A|-12--12--0----|---------------|-7-------7-|-0--------|
E|-----------9--|-10--10--------|-----------|----------|

Outros vídeos desta música
    1.092 exibições
      • ½ Tom
      • A
      • Bb
      • B
      • C
      • Db
      • D
      • Eb
      • E
      • F
      • F#
      • G
      • Ab
    • Adicionar à lista

    Afinação da cifra

    Afinador online

      0 comentários

      Ver todos os comentários

      Entre para o Cifra Club PRO

      Tenha acesso a benefícios exclusivos no App e no Site

      • Chega de anúncios

      • Badges exclusivas

      • Mais recursos no app do Afinador

      • Atendimento Prioritário

      • Aumente seu limite de lista

      • Ajude a produzir mais conteúdo

      Cifra Club Pro

      Aproveite o Cifra Club com benefícios exclusivos e sem anúncios
      Cifra Club Pro
      Aproveite o Cifra Club com benefícios exclusivos e sem anúncios
      Ops (: Contenido disponible sólo en portugués.
      OK