Cifra Club

Milícia De Jesus

Harpa Cristã

Cifra: Principal (violão e guitarra)
Selo Cifra Club: esta cifra foi revisada para atender aos critérios oficiais da nossa Equipe de Qualidade.
tom: E
E|---------------|---------------|---------------|---------------|---------------|
B|---------------|---------------|---------------|-0-------------|---------------|
G|-------------1-|-2----2--------|-1-----------1-|-----1---------|-------------1-|
D|---------------|---------2---4-|-----2---------|---------2---4-|-2-------------|
A|---------------|---------------|---------------|---------------|---------------|
E|---------------|---------------|---------------|---------------|---------------|

E|---------------|---------------|---------------|---------------|---------------|
B|---------0-----|---------------|---------------|---------------|---------------|
G|---------------|-3---1---------|---------------|---------------|---------------|
D|-4----4------4-|---------4---2-|-1-------2-----|---------------|-4----4--2---4-|
A|---------------|---------------|------2------1-|-2-----------2-|---------------|
E|---------------|---------------|---------------|---------------|---------------|

E|---------------|-----------------|---------------|---------------|
B|---------------|-----------------|---------------|---------------|
G|-1---1-------1-|-2-------1-------|---------------|---------------|
D|---------------|-----4-------4-2-|-4-------------|---------2---2-|
A|---------------|-----------------|-------------2-|-4---2---------|
E|---------------|-----------------|---------------|---------------|

E|---------------|---------------|--------------|---------------|---------------|
B|---------------|---------------|--------------|---------------|---------------|
G|------1--2-----|---------1-----|--------------|-------------1-|-2----2--------|
D|-4-----------4-|-2-----------4-|-2------------|---------------|---------2---4-|
A|---------------|------2--------|--------------|---------------|---------------|
E|---------------|---------------|--------------|---------------|---------------|

E|---------------|---------------|---------------|---------------|---------------|
B|---------------|-0-------------|---------------|---------0-----|---------------|
G|-1-----------1-|-----1---------|-------------1-|---------------|-3---1---------|
D|-----2---------|---------2---4-|-2-------------|-4----4------4-|---------4---2-|
A|---------------|---------------|---------------|---------------|---------------|
E|---------------|---------------|---------------|---------------|---------------|

E|---------------|---------------|---------------|---------------|
B|---------------|---------------|---------------|---------------|
G|---------------|---------------|---------------|-1---1-------1-|
D|-1-------2-----|---------------|-4----4--2---4-|---------------|
A|------2------1-|-2-----------2-|---------------|---------------|
E|---------------|---------------|---------------|---------------|

E|-----------------|---------------|---------------|---------------|
B|-----------------|---------------|---------------|---------------|
G|-2-------1-------|---------------|---------------|------1--2-----|
D|-----4-------4-2-|-4-------------|---------2---2-|-4-----------4-|
A|-----------------|-------------2-|-4---2---------|---------------|
E|-----------------|---------------|---------------|---------------|

E|---------------|--------------|---------------|---------------|---------------|
B|---------------|--------------|---------------|---------------|---------------|
G|---------1-----|--------------|-------------1-|-2----2--------|-1-----------1-|
D|-2-----------4-|-2------------|---------------|---------2---4-|-----2---------|
A|------2--------|--------------|---------------|---------------|---------------|
E|---------------|--------------|---------------|---------------|---------------|

E|---------------|---------------|---------------|---------------|---------------|
B|-0-------------|---------------|---------0-----|---------------|---------------|
G|-----1---------|-------------1-|---------------|-3---1---------|---------------|
D|---------2---4-|-2-------------|-4----4------4-|---------4---2-|-1-------2-----|
A|---------------|---------------|---------------|---------------|------2------1-|
E|---------------|---------------|---------------|---------------|---------------|

E|---------------|---------------|---------------|-----------------|
B|---------------|---------------|---------------|-----------------|
G|---------------|---------------|-1---1-------1-|-2-------1-------|
D|---------------|-4----4--2---4-|---------------|-----4-------4-2-|
A|-2-----------2-|---------------|---------------|-----------------|
E|---------------|---------------|---------------|-----------------|

E|---------------|---------------|---------------|---------------|--------------|
B|---------------|---------------|---------------|---------------|--------------|
G|---------------|---------------|------1--2-----|---------1-----|--------------|
D|-4-------------|---------2---2-|-4-----------4-|-2-----------4-|--------------|
A|-------------2-|-4---2---------|---------------|------2--------|--------------|
E|---------------|---------------|---------------|---------------|-12-----------|

Outros vídeos desta música
    3.459 exibições
      • ½ Tom
      • A
      • Bb
      • B
      • C
      • Db
      • D
      • Eb
      • E
      • F
      • F#
      • G
      • Ab
    • Adicionar à lista

    Afinação da cifra

    Afinador online

      0 comentários

      Ver todos os comentários

      Entre para o Cifra Club PRO

      Tenha acesso a benefícios exclusivos no App e no Site

      • Chega de anúncios

      • Badges exclusivas

      • Mais recursos no app do Afinador

      • Atendimento Prioritário

      • Aumente seu limite de lista

      • Ajude a produzir mais conteúdo

      Cifra Club Pro

      Aproveite o Cifra Club com benefícios exclusivos e sem anúncios
      Cifra Club Pro
      Aproveite o Cifra Club com benefícios exclusivos e sem anúncios
      Ops (: Contenido disponible sólo en portugués.
      OK