Cifra Club

O Convite De Cristo

Harpa Cristã

Cifra: Principal (violão e guitarra)
Selo Cifra Club: esta cifra foi revisada para atender aos critérios oficiais da nossa Equipe de Qualidade.
tom: G
E|----------|-----10----|----------|-----8------|-6-------6-|-----6---6--|
B|----------|---------6-|----------|---------6--|-----------|-----6---7--|
G|----------|-----7---7-|----------|-----8---8--|-7-------7-|------------|
D|----------|-----8---8-|----------|-----7---10-|-8-------8-|-----8---8--|
A|----------|-----------|----------|-----8---8--|-----------|------------|
E|----------|-----6---6-|-1------1-|------------|-6-------6-|-----10--10-|

E|-6--------|-----6---8-|-10-------|-----10-----|-8-------8-|-----8------|
B|-8--------|-8---8---8-|-7--------|-----0---8--|-----------|---------6--|
G|----------|-----0---0-|----------|-----10--10-|-9-------9-|-----8---8--|
D|-8--------|-8---------|-7--------|---------12-|-10------8-|-----7---10-|
A|-6--------|-6---6---6-|----------|-----10--10-|-----------|-----8---8--|
E|----------|-----------|-10-------|------------|-8-------8-|------------|

E|-6-------6-|-----10--10-|-11---------|-----10--8-|-6--------|----------|
B|-----------|------------|---------8--|-----------|----------|----------|
G|-7-------7-|-----10--10-|-8-------8--|-----8---8-|-7--------|----------|
D|-8-------8-|-----8---8--|-8-------8--|-----7---7-|-8--------|----------|
A|-----------|-----11--11-|-10------10-|-----8---8-|----------|----------|
E|-6-------6-|------------|------------|-----------|-6--------|----------|

Outros vídeos desta música
    2.587 exibições
      • ½ Tom
      • A
      • Bb
      • B
      • C
      • Db
      • D
      • Eb
      • E
      • F
      • F#
      • G
      • Ab
    • Adicionar à lista

    Afinação da cifra

    Afinador online

      0 comentários

      Ver todos os comentários

      Entre para o Cifra Club PRO

      Tenha acesso a benefícios exclusivos no App e no Site

      • Chega de anúncios

      • Badges exclusivas

      • Mais recursos no app do Afinador

      • Atendimento Prioritário

      • Aumente seu limite de lista

      • Ajude a produzir mais conteúdo

      Cifra Club Pro

      Aproveite o Cifra Club com benefícios exclusivos e sem anúncios
      Cifra Club Pro
      Aproveite o Cifra Club com benefícios exclusivos e sem anúncios
      Ops (: Contenido disponible sólo en portugués.
      OK