Cifra Club

Pura, Sim, Mais Pura

Harpa Cristã

Cifra: Principal (violão e guitarra)
tom: G
E|-----1---3---4-|-4-------3----|---------------|--------------|-----3---4---8-|
B|-4---1---1---1-|-2-------2----|-4---4---6---4-|-4------------|-6-------------|
G|-5-------------|--------------|-3---3---6---6-|-5------------|-5---5---5---5-|
D|-----1---1---1-|-1-------1----|-5---5---5---5-|-6------------|-6---5---3-----|
A|-6-------------|-1-------1----|---------6---6-|--------------|---------------|
E|-4---4---4---4-|--------------|---------------|-4------------|-4---4---4---4-|

E|-8-------6----|-6---1---3---1-|--------------|-----8---6---4-|--------------|
B|-4------------|-----3---3---3-|-4------------|-4-------------|-9-------8----|
G|---------8----|-7---1---1---1-|-3------------|-5---5---5---5-|-6-------6----|
D|-5-------5----|-6-------------|-5------------|---------------|--------------|
A|--------------|-----1---1---1-|-6------------|-6---6---6---6-|-6-------6----|
E|-6-------6----|-6-------------|--------------|-4---4---4---4-|-6-------6----|

E|-----9---8---6--|-11-----------|-11--11--9---8-|-6------------|-------------6-|
B|----------------|--------------|-7---7---7---7-|-6-------6----|-8---6---4-----|
G|-8---8---8---8--|-8------------|---------------|---------6----|-6---6---6---6-|
D|----------------|--------------|-7---7---7---7-|-8-------8----|-8---6---5---5-|
A|-10--10--10--10-|-11-----------|---------------|--------------|-6---6---6---6-|
E|-6---6---6---6--|-8------------|-8---8---8---8-|-9-------6----|---------------|

E|-4------------|--------------|
B|--------------|--------------|
G|-5------------|--------------|
D|-6------------|--------------|
A|--------------|--------------|
E|-4------------|--------------|

00:00 / 00:00
Outros vídeos desta música
Repetir
Outros vídeos desta música
Compositor não encontrado.
Colaboração e revisão:
  • Helon Oliveira
966 exibições
    • ½ Tom
    • A
    • Bb
    • B
    • C
    • Db
    • D
    • Eb
    • E
    • F
    • F#
    • G
    • Ab
  • Adicionar à lista

    0 comentários

    Ver todos os comentários

    Entre para oCifra Club PRO

    Tenha acesso a benefícios exclusivos no App e no Site

    • Chega de anúncios

    • Prioridade de compra em lançamentos

    • Mais recursos no app do Afinador

    • Atendimento Prioritário

    • Descontos nos produtos Cifra Club

    • Ajude a produzir mais conteúdo

    00:00 / 00:00

    Cifra Club Pro

    Aproveite o Cifra Club com benefícios exclusivos e sem anúncios
    Cifra Club Pro
    Aproveite o Cifra Club com benefícios exclusivos e sem anúncios
    OK