Cifra Club

Seguirei a Cristo

Harpa Cristã

Cifra: Principal (violão e guitarra)
Selo Cifra Club: esta cifra foi revisada para atender aos critérios oficiais da nossa Equipe de Qualidade.
tom: Ab
E|-8---11--8-6-4-|-4-6-4---------|-3-3-3---4-4-4-|-6-8-9--8-6----|-8---11--8-6-4-|
B|-9---9---4-----|-------6-6---4-|-4-4-4---4-4-4-|-8-9-11-9-8----|-9---9---4-----|
G|-8---------6-5-|-6-6-6-6-6---5-|-3-3-3---5-5-5-|-8-8-8--8-8----|-8---------6-5-|
D|-----10--6---6-|-3-3-3-6-6---6-|---------------|---------------|-----10--6---6-|
A|-11--11--------|-4-4-4-4-------|-6-6-6---6-6-6-|-6-6-6--6-6----|-11--11--------|
E|---------4---4-|---------4---4-|---------------|---------------|---------4---4-|

E|-4-6-4---------|-----------8--8--11-9--|-8-------4----|--------------|
B|-------6-6---4-|-6-8-9--11-------------|-----11--4----|--------------|
G|-6-6-6-6-6---5-|-6-8-8--0--8--8--8--10-|-8---8---5----|--------------|
D|-3-3-3-6-6---6-|-6-8----13-------------|-----11-------|--------------|
A|-4-4-4-4-------|-----11----11-11-11-11-|-11-----------|--------------|
E|---------4---4-|-9-9-8--11-------8--9--|-11--11--4----|--------------|

Outros vídeos desta música
    1.211 exibições
      • ½ Tom
      • A
      • Bb
      • B
      • C
      • Db
      • D
      • Eb
      • E
      • F
      • F#
      • G
      • Ab
    • Adicionar à lista

    Afinação da cifra

    Afinador online

      0 comentários

      Ver todos os comentários

      Entre para o Cifra Club PRO

      Tenha acesso a benefícios exclusivos no App e no Site

      • Chega de anúncios

      • Badges exclusivas

      • Mais recursos no app do Afinador

      • Atendimento Prioritário

      • Aumente seu limite de lista

      • Ajude a produzir mais conteúdo

      Cifra Club Pro

      Aproveite o Cifra Club com benefícios exclusivos e sem anúncios
      Cifra Club Pro
      Aproveite o Cifra Club com benefícios exclusivos e sem anúncios
      Ops (: Contenido disponible sólo en portugués.
      OK