Cifra Club

Vem a Jesus, Ó Perdido

Harpa Cristã

Cifra: Principal (violão e guitarra)
Selo Cifra Club: esta cifra foi revisada para atender aos critérios oficiais da nossa Equipe de Qualidade.
tom: Cm
E|------------------------6---|-6-----6-6------------|
B|-8--8--8-----------8--------|---6-6-----9-8--------|
G|-8--8--8--10-8--10-8----8---|-7-7-7-7-7-7-8--------|
D|-8--8--8--8--8--8--8--------|---8-8-----8-8--------|
A|----------11-10-11------10--|-8-----8-8------------|
E|-11-11-11-11-11-11-11---11--|-6-6-6-6-6-6-11-------|

E|----------------------------|----------------8-6--------|
B|-8--8--8-----------8----11--|-10-10-10-10-11--------9---|
G|-8--8--8--10-8--10-8----8---|-8--8--8--8--8--8-7--------|
D|-8--8--8--8--8--8--8--------|----------10-8--7-8--------|
A|----------11-10-11------10--|-8--8--8--8--8--8----------|
E|-11-11-11-11-11-11-11---11--|------------------6--------|

E|-11-11-11-11-10-8-----------|----------------3--------|
B|-8--8--8--8--------11-------|----------6-4-6-3---4-6--|
G|-------------8--8--8----12--|-8--8--8--5-5-5-4---5-7--|
D|-8--8--8--8-------------8---|-10-10-10-------------5--|
A|-------------11-11-10---10--|-10-10-10----------------|
E|-11-11-11-11-11-11-11---11--|-8--8--8--4-4-4-3--------|

E|-8-----8--11-10-8-----------|-6--------------------|
B|----13-------------11---8---|---6-8-9-8-6----------|
G|-8--8--8--8--8--8--8----8---|-7-7-8-7-7-7-0--------|
D|-10-10-10-10-8-----8----8---|-8-8-8-8-8-6-13-------|
A|-11-11-11-11-11-11-10-------|----------------------|
E|------------------------11--|-6-6-6-6-6-6-11-------|

Outros vídeos desta música
    1.637 exibições
      • ½ Tom
      • Am
      • Bbm
      • Bm
      • Cm
      • C#m
      • Dm
      • Ebm
      • Em
      • Fm
      • F#m
      • Gm
      • G#m
    • Adicionar à lista

    Afinação da cifra

    Afinador online

      0 comentários

      Ver todos os comentários

      Entre para o Cifra Club PRO

      Tenha acesso a benefícios exclusivos no App e no Site

      • Chega de anúncios

      • Badges exclusivas

      • Mais recursos no app do Afinador

      • Atendimento Prioritário

      • Aumente seu limite de lista

      • Ajude a produzir mais conteúdo

      Cifra Club Pro

      Aproveite o Cifra Club com benefícios exclusivos e sem anúncios
      Cifra Club Pro
      Aproveite o Cifra Club com benefícios exclusivos e sem anúncios
      OK