Cifra Club

Salém Cidades Das Bruxas

Harppia

Cifra: Principal
exibições 4.183
Tom: F
 Intro: A5

Gtr 1. 
|E||--------------------------------------||
|B||--------------------------------------||
|G||--------------------------------------||
|D||--------------------------------------||
|A||-0-0-0-3-3-3-2-2-2--------------------||
|E||-------------------3~~-1--3-1--3~~----||
|
|Gtr 2. (Uma quinta à cima)
|E||-------------------------------------||
|B||-------------------------------------||
|G||-------------------------------------||
|D||-0-0-0-3-3-3-2-2-2-------------------||
|A||-------------------3~~-1--3-1--3~~---||
|E||-------------------------------------|| 
(~~= VIBRATO)
 
Meados de 1692;
Trinta e quatro pessoas são executadas;
A acusação... feitiçaria;
Cidade... Salém....
      A5                           A5                           A5     E5 F5
E|-----------------------------------------------------------------------||
B|-----------------------------------------------------------------------||
G|-----------------------------------------------------------------------||
D|-7--7--------5-H-7-P-5--------7--7--------5-H-7-P-5--------7--7---2--3-||
A|-7--7--5-H-7-----------7-P-5--7--7--5-H-7-----------7-P-5--7--7---2--3-||
E|-5--5-------------------------5--5-------------------------5--5---0--1-||

A5                                                 F5
Gatos, ratos, corvos e morcegos bancam os guardiães

E|-----------------------------------------||
B|----6-----6-----6------6-----------------||
G|------5-----5-----5-------5--5A.H.~~-----||
D|--3-----3-----3-----3--------------------||
A|-----------------------------------------||
E|-----------------------------------------||
A.H = HARMÔNICO ARTIFICIAL
~~= VIBRATO

A5                                     F5
Enquanto inflama o tacho do sortilégio
E|-----------------------------------------||
B|----6-----6-----6------6-----------------||
G|------5-----5-----5-------5--5A.H.~~-----||
D|--3-----3-----3-----3--------------------||
A|-----------------------------------------||
E|-----------------------------------------||

G5                                     A5
A magia negra corre à solta esta noite
E|--------------------------------------------------||
B|--------------------------------------------------||
G|--------------------------------------------------||
D|-2-------2-------2-------2-----------------2~~----||
A|-0-3-H-4-0-3-H-4-0-3-H-4-0-3-H-4-2-0-3-H-4--------||
E|--------------------------------------------------||


G
O que nessa cidade não é nenhum sacrilégio
E|--------------------------------------------------||
B|--------------------------------------------------||
G|--------------------------------------------------||
D|-2-------2-------2-------2-----------------2~~----||
A|-0-3-H-4-0-3-H-4-0-3-H-4-0-3-H-4-2-0-3-H-4--------||
E|--------------------------------------------------||

      A5                           A5                           A5     E5 F5
E|-----------------------------------------------------------------------||
B|-----------------------------------------------------------------------||
G|-----------------------------------------------------------------------||
D|-7--7--------5-H-7-P-5--------7--7--------5-H-7-P-5--------7--7---2--3-||
A|-7--7--5-H-7-----------7-P-5--7--7--5-H-7-----------7-P-5--7--7---2--3-||
E|-5--5-------------------------5--5-------------------------5--5---0--1-||

E5       G5         F#5
Alto lá, guerreiros eternos
      E5           F5 E5
Que o mestre vos aguarda
E5         G5      F#5
Permaneçam pois, fiéis
       E5            F5 E5
Que de vós será o inferno
      A5                           A5                           A5     E5 F5
E|-----------------------------------------------------------------------||
B|-----------------------------------------------------------------------||
G|-----------------------------------------------------------------------||
D|-7--7--------5-H-7-P-5--------7--7--------5-H-7-P-5--------7--7---2--3-||
A|-7--7--5-H-7-----------7-P-5--7--7--5-H-7-----------7-P-5--7--7---2--3-||
E|-5--5-------------------------5--5-------------------------5--5---0--1-||

[VERSO2]
Feitiços e pragas ardem no meio da noite
Fazendo da escuridão um presságio aflito
Mentes humanas oram e proclamam
Satã nosso Rei, venha a nós, oh! Maldito
      A5                           A5                           A5     E5 F5
E|-----------------------------------------------------------------------||
B|-----------------------------------------------------------------------||
G|-----------------------------------------------------------------------||
D|-7--7--------5-H-7-P-5--------7--7--------5-H-7-P-5--------7--7---2--3-||
A|-7--7--5-H-7-----------7-P-5--7--7--5-H-7-----------7-P-5--7--7---2--3-||
E|-5--5-------------------------5--5-------------------------5--5---0--1-||


REFRÃO
A5          C5        B5
Salém, a cidade das bruxas
A5        F5            G5
Salém, os domínios do inferno
A5          C5        B5
Salém, a cidade das bruxas
A5        F5            G5   Bb  Cb
Salém, onde o mal é eterno

BASE DO SOLO1 : D5 | C5  | D5  | F5  E5  C5 | D5  | C5   |

[BRIDGE OU PONTE]
GTR 1:
|E||---------------------------------------------------------------||
|B||---------------------------------------------------------------||
|G||--8-7~~--------------------------------------------------------||
|D||----------8---7~~--8----7---5---3---3----5~--3-2---------------||
|A||-----------------------------------------------------5--3--2~~-||
|E||---------------------------------------------------------------|| REPITA 2 VEZES
|
|
|GTR 2 (1 OITAVA A CIMA)
|GTR 1:
|E||--11-10~~------------------------------------------------------||
|B||----------11--10~~-11---10-------------------------------------||
|G||----------------------------12--10--10--12--10--9~-------------||
|D||---------------------------------------------------12--10-9~~--||
|A||---------------------------------------------------------------||
|E||---------------------------------------------------------------||REPITA 2 VEZES

BASE DO SOLO 2  : D5 | C5  | D5  | F5  E5  C5 |(2 VEZES)

     A5                           A5                           A5     E5 F5
E|-----------------------------------------------------------------------||
B|-----------------------------------------------------------------------||
G|-----------------------------------------------------------------------||
D|-7--7--------5-H-7-P-5--------7--7--------5-H-7-P-5--------7--7---2--3-||
A|-7--7--5-H-7-----------7-P-5--7--7--5-H-7-----------7-P-5--7--7---2--3-||
E|-5--5-------------------------5--5-------------------------5--5---0--1-||

lETRAS ADICIONAIS:

Uma carga de agouros paira sobre a cidade
e para provar sua força malévola
Chega a desafiar a própria Trindade
Arrastando consigo legiões de demônios

Alto lá, guerreiros eternos
Que o mestre vos aguarda
Permaneçam pois, fiéis
Que de vós será o inferno

Tire você mesmo sua própria conclusão
Antes que lhe lancem um feitiço
Que o transformará de corpo e alma
Em mais um discípulo submisso

Salém, a cidade das bruxas
Salém, os domínios do inferno
Salém, a cidade das bruxas
Salém, onde o mal é eterno

BASE PARA SOLO DE BAIXO = SOLO2 DA GUITARRA
       Bb5    C5       Bb5    C5
onde o mal é eterno, o mal é eterno
F5 E5  D5
Sa----lé-m
Acordes para:
    Colaboração e revisão:
    • Aya Maki
    • Marta Amorim

    0 comentários

      mostrar mais comentários

      Conseguiu tocar?

      0tocaram0ainda não

      Grave um vídeo tocando Salém Cidades Das Bruxas e mande pra gente!

      00:00 / 00:00
      outros vídeos desta música
      repetirqualidadeautomática
      Outro vídeos desta música
        00:00 / 00:00
        automática
        OK