Cifra Club

La Carta

Héroes Del Silencio

Cifra: Versão 4 (violão e guitarra)
Selo Cifra Club: esta cifra foi revisada para atender aos critérios oficiais da nossa Equipe de Qualidade.
tom: Am
Intro:
E|----------------------------|--12--------12-------13-------12-------|
B|----------------------------|------10--------10-------10-------10---|
G|----------------------------|---------------------------------------|
D|----------------------------|---------------------------------------|
A|-0--0--0--0-----0--0--0-----|---------------------------------------|
E|----------------------------|---------------------------------------|

Riff 1

  Am               F                C               Em
E|----------------|---------------|----------------|-----------7-----|
B|----------------|---------------|----------------|---------------8-|
G|-------9------9-|-------10----9-|-------9--------|--------9--------|
D|----9------9----|-----9-----9---|-----9----9-----|-----9-----------|
A|--0-------------|-8-------------|----------------|--7--------------|
E|----------------|---------------|--8-----------8-|-----------------|

                                         End Riff 1
  Am                     F                C               Em
E|------------------|----------------|---------------|----------------|
B|------------------|----------------|---------------|-----------8--7-|
G|--------9-----9---|------10-----9--|-------9-------|--------9-------|
D|-----9-----9------|---9------9-----|-----9----9----|-----9----------|
A|--0---------------|-8--------------|---------------|--7-------------|
E|------------------|----------------|--8----------8-|----------------|


Verse 1

 Am        F            C     Em
   No hace mucho que lei tu carta,
           Am   F          C
 y, sin fuerzas para contestar,
        Em                    Am
 mil pedazos al viento nos separan.
        F           C
 pondre casa en un pais
     Em      Am
 lejano para olvidar
 F                C    Em             With Riff 1
 este miedo hacia ti, este miedo hacia ti.



Verse 2

 Am         F          C
 y no hace mucho que rompi
        Em       Am
 tu recuerdo pensando
  F      C         Em
 acabar de una vez.
 Am        F             C
 pero el tiempo y la distancia
          Em       Am
 no son todo para mi
            F       C   Em
 siempre hay algo que me hace volver.


Chorus
   F             Em             Am                      F
  siempre he escuchado, y ya no te creo     ¿porque no te entiendo?

E|-1-------------|-0-----------|--0-------------------|--1-----------|
B|-1-------------|-0-----------|--1-------------------|--1-----------|
G|-2-------------|-0-----------|--2-------------------|--2-----------|
D|-3-------------|-2-----------|--2-------------------|--3-----------|
A|-3-------------|-2-----------|--0-------------------|--3-----------|
E|-1-------------|-0-----------|--0-------------------|--1-----------|

 G                    Em
 ¿porque estas    tan lejos ?  uuh--- uh--  uh------

E|-3-------------|---------2---------3--------2-------|
B|-4-------------|----5------5----5-----5--------5----|
G|-5-------------|-------4------4----------4--------4-|
D|-5-------------|--2---------------------------------|
A|-3-------------|------------------------------------|
E|-3-------------|------------------------------------|

   F             Em             Am                      F
  siempre he escuchado, y ya no te creo     ¿porque no te entiendo?

E|-1-------------|-0-----------|--0-------------------|--1----1------|
B|-1-------------|-0-----------|--1-------------------|--1------1----|
G|-2-------------|-0-----------|--2-------------------|--2--2-----2--|
D|-3-------------|-2-----------|--2-------------------|--3-----------|
A|-3-------------|-2-----------|--0-------------------|--3-----------|
E|-1-------------|-0-----------|--0-------------------|--1-----------|

 G                Em
 ¿porque estas   tan lejos   uuh--- uh--  uh------

E|-3-----3-------|---------2---------3--------2-------|
B|-4--------4----|----5------5----5-----5--------5----|
G|-5--5--------5-|-------4------4----------4--------4-|
D|-5-------------|--2---------------------------------|
A|-3-------------|------------------------------------|
E|-3-------------|------------------------------------| With Riff 1


Verse 3

 Am        F             C
 se que siempre he sido asi
          Em         Am
 y que no tengo remedio,
 F          C      Em
 ni lo quiero tener.
 Am           F          C
 pero ni el miedo ni tu cartas
         Em        Am
 lo son todo para mi
        F     C          Em
 quizas otra vez te echare la culpa a ti.


Chorus


  Am               F                C               Em
E|----------------|---------------|----------------|-----------7-----|
B|----------------|---------------|----------------|---------------8-|
G|-------9-----9--|-------10----9-|-------9--------|--------9--------|
D|----9-----9-----|----9-----9----|----9-----9-----|-----9-----------|
A|--0-------------|-8-------------|----------------|--7--------------|
E|----------------|---------------|--8----------8--|-----------------|

Am                 F                C                Em
E|----------------|----------------|-----------------|--------------7-|
B|----------------|----------------|-----------10----|-----------8----|
G|--------9---9---|-------7----9---|-------10-----10-|--------9-------|
D|------9---9-----|----9-----9-----|----10-----------|-----9----------|
A|---0------------|-8--------------|-----------------|--7-------------|
E|----------------|----------------|--8--------------|----------------|

Am                F                       C                   Em
E|---------------|-------------------|---------------8--|----------7--|
B|---------------|-------------------|-----------10-----|--------8----|
G|-------9---9---|--------7-----9----|-------10---------|------9------|
D|-----9---9-----|----9------9-------|----10------------|----9--------|
A|--0------------|-8-----------------|------------------|--7----------|
E|---------------|-------------------|-8----------------|-------------|

Am               C            F#m          F
E|--------------|--------------|------------|---------------|
B|--------------|--------------|------------|---------------|
G|------9----9--|-------9------|------9-----|------9-10-9---|
D|----9----9----|----10---10---|---10---10--|---10----------|
A|--0-----------|-10---------10|-9---------9|-8-------------|
E|--------------|--------------|------------|---------------|

  Am                 Am
E|-17--| |-5---|
B|-17--| |-5---|
G|-17--| O       |-5---|
D|-----| si no     |-----|
A|-----| |-----|
E|-----| |-----|








Nota*  esta parte la pueden tocar de otra formas distintas.

E|---------2---------3--------2-------|
B|----5------5----5-----5--------5----|
G|-------4------4----------4--------4-|
D|--2---------------------------------|
A|------------------------------------|
E|------------------------------------|

E|----0-------------------------------|
B|------0----8---------7--------------|
G|-0------0-----9---------9-----------|
D|-2---------------9---------9--------|
A|-2----------------------------------|
E|------------------------------------|
Outros vídeos desta música
    12 exibições
      • ½ Tom
      • Am
      • Bbm
      • Bm
      • Cm
      • C#m
      • Dm
      • Ebm
      • Em
      • Fm
      • F#m
      • Gm
      • G#m
    • Adicionar à lista

    Afinação da cifra

    Afinador online

      0 comentários

      Ver todos os comentários

      Entre para o Cifra Club PRO

      Tenha acesso a benefícios exclusivos no App e no Site

      • Chega de anúncios

      • Badges exclusivas

      • Mais recursos no app do Afinador

      • Atendimento Prioritário

      • Aumente seu limite de lista

      • Ajude a produzir mais conteúdo

      Cifra Club Pro

      Aproveite o Cifra Club com benefícios exclusivos e sem anúncios
      Cifra Club Pro
      Aproveite o Cifra Club com benefícios exclusivos e sem anúncios
      OK