Cifra Club

La Espuma De Venus

Héroes Del Silencio

Cifra: Principal (violão e guitarra)
Selo Cifra Club: esta cifra foi revisada para atender aos critérios oficiais da nossa Equipe de Qualidade.
tom: Am
  INTRO

 1.  Am            F             Em
E|--------------------------------------------------------|
B|-------1---0h1-------1---0h1--------0------------0------|
G|----------------------------------------0------------0--|
D|--------------------------------------------------------|
A|---0----------------------------------------------------|
E|-----------------1-------------0------------------------|

 2.  Am            F             Em
E|----------------------------------------0---------------|
B|-------1---0h1-------1---0h1--------0-----------0-------|
G|-----------------------------------------------------0--|
D|--------------------------------------------------------|
A|---0----------------------------------------------------|
E|-----------------1-------------0------------------------|

 3.  Am            F             Em
E|--------------------------------------------------------|
B|-------1---0h1-------1---0h1--------0-----------0-------|
G|----------------------------------------0------------0--|
D|--------------------------------------------------------|
A|---0----------------------------------------------------|
E|-----------------1-------------0------------------------|

 4.  Dm                   F                G
E|---------------------------------------------------3-------3--| 2x
B|-----------6---------------6--5-6p5---------------------------| (a la 2da repet.
G|-------7-----7----------7------------7-5-7-----0-------0------| intercambia la
D|---------------7----------------------------------------------| 'barra' 2 por la
A|---5----------------------------------------------------------| 'barra' 3)
E|--------------------------------------------------------------|


  VERSO 1
     (...En frío a flor...)

     Am            F              Em
E|-----------------------------------------------------------|
B|-------1---0h1-------1---0h1--------1---0h1-------1---0h1--|
G|-----------------------------------------------------------|
D|-----------------------------------------------------------|
A|---0----------------------------0-------------0------------|
E|-----------------1-----------------------------------------|

     Am            Em           G                    F
E|---------------------------------------------------------------------|
B|-------1---0h1---------0-----------3---0h3--0-3--------3---0h3--0-3--|
G|-------------------------0-------------------------------------------|
D|---------------------------------------------------------------------|
A|---0-----------------------------------------------------------------|
E|-----------------0------------3--------------------1-----------------|

    Em              Am
E|------------------------------------|
B|------3---0h3---------1---0h1--0-1--|
G|------------------------------------|
D|------------------------------------|
A|------------------0-----------------|
E|--0---------------------------------|


   PUENTE
      (...naaAAdé desnudo tu oleaje...)

     Am              G               F
E|-----------------------------------------1---------1-0--|
B|-------1---0h1---------3---0h3--------------------------|
G|--------------------------------------------------------| 2x
D|--------------------------------------------------------|
A|---0----------------------------------------------------|
E|-------------------3---------------1-----------1--------|


   VERSO 1 (...ahora que el barco se hunde...)


   PUENTE


   VERSO 2
     (...la espuma de venus...)


     Am              F                Em
E|----------------------------------------------------------|
B|--------1---0h1---------1---0h1----------0---------0------|
G|---------------------------------------------0---------0--|
D|----------------------------------------------------------|
A|---0------------------------------------------------------|
E|-------------------1----------------0---------------------|

     Dm                       F                      Am
E|--------------------------------------------------------------------------|
B|-----------6--5--6p5----------------6--5--6p5----------0-1-0--1---3--1--0-|
G|--------7-------------7----------7-------------7--------------------------|
D|---5------------------------5---------------------------------------------|
A|---------------------------------------------------0----------------------|
E|--------------------------------------------------------------------------|


  PD-E STRIBILLO

     F        C        G        C         F        C        G        C
E|--------------------------------------|----------------------------3------|
B|---1------1-3------3-3------3-1-------|-1------1-3------3-3------3---3----|
G|-----2--------0--------0--------0---0-|---2--------0--------0----------0--|
D|-------3--------2--------0--------2---|-----3--------2--------0-----------|
A|--------------------------------------|-----------------------------------|
E|--------------------------------------|-----------------------------------|


  ESTRIBILLO
        (...la ficción es y será...)

     F        C        G        C        F      C        G           C
E|------------------------------0------|-----------------------------3----|
B|---1------1-1------1-3------3---1----|-1------1-1------1-3------3----3--|
G|-----2--------0--------0----------0--|---2--------0--------0------------| 4x
D|-------3--------2--------0-----------|-----3--------2--------0----------|
A|-------------------------------------|----------------------------------|
E|-------------------------------------|----------------------------------|


  2do G  O

     F      C       G        C     F      C    G
E|---------------------------------------------------|
B|---1--3-1-3/5----1--3-1-3/8~----1--3-1-3/5--8~~~--|
G|---------------------------------------------------|
D|---------------------------------------------------|
A|---------------------------------------------------|
E|---------------------------------------------------|




  PUENTE


  VERSO 2 (...perfume inmaterial cobijo y principio...)


  PD-E STRIBILLO


  ESTRIBILLO 2x (8x)


  3er G  O

     F      C       G        C     F      C    G
E|---------------------------------------------------|
B|---1--3-1-3/5----1--3-1-3/8~----1--3-1-3/5--8~~~--|
G|---------------------------------------------------| 2x
D|---------------------------------------------------|
A|---------------------------------------------------|
E|---------------------------------------------------|

       F       C       G       C          F           C         F
E|-----------3p0-3-5p3-5h8-5-8-10-8-10-12-15p12-10h12-10p8-10-8-10~~~~--|
B|---3-5p3-5------------------------------------------------------------|
G|----------------------------------------------------------------------|
D|----------------------------------------------------------------------|
A|----------------------------------------------------------------------|
E|----------------------------------------------------------------------|
Outros vídeos desta música
    166 exibições
      • ½ Tom
      • Am
      • Bbm
      • Bm
      • Cm
      • C#m
      • Dm
      • Ebm
      • Em
      • Fm
      • F#m
      • Gm
      • G#m
    • Adicionar à lista

    Afinação da cifra

    Afinador online

      0 comentários

      Ver todos os comentários

      Entre para o Cifra Club PRO

      Tenha acesso a benefícios exclusivos no App e no Site

      • Chega de anúncios

      • Badges exclusivas

      • Mais recursos no app do Afinador

      • Atendimento Prioritário

      • Aumente seu limite de lista

      • Ajude a produzir mais conteúdo

      Cifra Club Pro

      Aproveite o Cifra Club com benefícios exclusivos e sem anúncios
      Cifra Club Pro
      Aproveite o Cifra Club com benefícios exclusivos e sem anúncios
      OK