Cifra Club

Malas Intenciones

Héroes Del Silencio

Cifra: Principal (violão e guitarra)
Selo Cifra Club: esta cifra foi revisada para atender aos critérios oficiais da nossa Equipe de Qualidade.
tom: Bm
  INTRO
     A
E|------0------------------------| |-----0-0-----0-0--|
B|------------3-----2-------3----| |------------------|
G|---2-----2-----2-----2-0----2--| 3x |--2-------2-------|
D|-------------------------------| |------------------|
A|-------------------------------| |------------------|
E|-------------------------------| |------------------|

   RIFF  1
     Bm                                  Em        A
E|---2----------2-----2------------2-----3---3-3-3/5------7--5-----|
B|-------3---------3------3-----------3----3---------5----------5--|
G|-----------4----------------4------------------------------------|
D|-----------------------------------------------------------------|
A|-----------------------------------------------------------------|
E|-----------------------------------------------------------------|

     Bm                               Em            A
E|---2----------2-----7--2-----2------3-----3-3-3/5-5---7--9-7-5--|
B|-------3---------3--------3-----3------3-----------5------------|
G|-----------4----------------------------------------------------|
D|----------------------------------------------------------------|
A|----------------------------------------------------------------|
E|----------------------------------------------------------------|

     Bm                               Em            A
E|---2----------2-----7--2-----2------3-----3-3-3/5-5---12-12--|
B|-------3---------3--------3-----3------3------------5--------|
G|-----------4-------------------------------------------------|
D|-------------------------------------------------------------|
A|-------------------------------------------------------------|
E|-------------------------------------------------------------|

     Bm                              F#m            E
E|---2----------2-----7--2-----2-----------9-9---------9-9--|
B|-------3---------3--------3-----9--10----------9--7-------|
G|-----------4--------------------------11------------------|
D|----------------------------------------------------------|
A|----------------------------------------------------------|
E|----------------------------------------------------------|

   VERSO  (...no me importa lo que pienses...)

        Bm                G      A                     Bm              F#m
E|----2-2-2-2-2-2-2-2-2-3---2--0------0----| |--2-2-2-2-2-2-2-2-2-2-2-2-2-2-2-2--|
B|----3-3-3-3-3-3-3-3--------------3-------| |--3-3-3-3-3-3-3-3-2-2-2-2-2-2-2-2--|
G|----4-4-4-4-4-4-4-4----------------------| Repite|--4-4-4-4-4-4-4-4-2-2-2-2-2-2-2-2--|
D|----4-4-4-4-4-4-4-4----------------------| 3x  |--4-4-4-4-4-4-4-4-4-4-4-4-4-4-4-4--|
A|----2-2-2-2-2-2-2-2----------------------| |--2-2-2-2-2-2-2-2-4-4-4-4-4-4-4-4--|
E|----2-2-2-2-2-2-2-2----------------------| |--2-2-2-2-2-2-2-2-2-2-2-2-2-2-2-2--|

    PUENTE (...y ahora sé que no comprendes...)

        Bm                G      A              Bm              G       A
E|----2-2-2-2-2-2-2-2-2-3---2--0------0----|--2-2-2-2-2-2-2-2-3-3-3-3-0-0-0-0-|
B|----3-3-3-3-3-3-3-3--------------3-------|--3-3-3-3-3-3-3-3-3-3-3-3-2-2-2-2-|
G|----4-4-4-4-4-4-4-4----------------------|--4-4-4-4-4-4-4-4-0-0-0-0-2-2-2-2-|
D|----4-4-4-4-4-4-4-4----------------------|--4-4-4-4-4-4-4-4-0-0-0-0-2-2-2-2-|
A|----2-2-2-2-2-2-2-2----------------------|--2-2-2-2-2-2-2-2-2-2-2-2-0-0-0-0-|
E|----2-2-2-2-2-2-2-2----------------------|--2-2-2-2-2-2-2-2-3-3-3-3-0-0-0-0-|

        Bm                G      A              Bm              F#m
E|----2-2-2-2-2-2-2-2-2-3---2--0------0----|--2-2-2-2-2-2-2-2-2-2-2-2-2-2-2-2-|
B|----3-3-3-3-3-3-3-3--------------3-------|--3-3-3-3-3-3-3-3-2-2-2-2-2-2-2-2-|
G|----4-4-4-4-4-4-4-4----------------------|--4-4-4-4-4-4-4-4-2-2-2-2-2-2-2-2-|
D|----4-4-4-4-4-4-4-4----------------------|--4-4-4-4-4-4-4-4-4-4-4-4-4-4-4-4-|
A|----2-2-2-2-2-2-2-2----------------------|--2-2-2-2-2-2-2-2-4-4-4-4-4-4-4-4-|
E|----2-2-2-2-2-2-2-2----------------------|--2-2-2-2-2-2-2-2-2-2-2-2-2-2-2-2-|


    ESTRIBILLO
  (...y no, quisiera utilizar...)

        F#m      Bm    A   F#m      A
E|----2--------2-----0---2--------0--|
B|----2--------3-----2---2--------2--|
G|----2--------4-----2---2--------2--| 2x
D|----4--------4-----2---4--------2--|
A|----4--------2-----0---4--------0--|
E|----2--------2-----0---2--------0--|


    RIFF 2

       Bm                              Em            A
E|---7--2------2-----7--2-----2------3-----3-3-3/5-5-----12-12--|
B|---------3------3--------3-----3------3------------5----------|
G|--------------------------------------------------------------|
D|--------------------------------------------------------------|
A|--------------------------------------------------------------|
E|--------------------------------------------------------------|

       Bm                                Em            A
E|---2-----------2------7--2-----2-----3-----3-3-3/5-5----7---9-7-5--|
B|-------3-----------3--------3-----3-----3------------5-------------|
G|-----------4-------------------------------------------------------|
D|-------------------------------------------------------------------|
A|-------------------------------------------------------------------|
E|-------------------------------------------------------------------|

       Bm                                        Em             A
E|---2-----------2--------2------------2-------3------3-3-3/5-5-----7---5-----|
B|-------3-----------3--------3------------3------3-------------5----------5--|
G|-----------4---------------------4------------------------------------------|
D|----------------------------------------------------------------------------|
A|----------------------------------------------------------------------------|
E|----------------------------------------------------------------------------|

       Bm                                    F#m               E
E|---2-----------2--------7--2------2---------------9-9---------9-9--|
B|-------3-----------3----------3-------9--10-------------9--7-------|
G|-----------4---------------------------------11--------------------|
D|-------------------------------------------------------------------|
A|-------------------------------------------------------------------|
E|-------------------------------------------------------------------|


    VERSO

    PUENTE

    ESTRIBILLO

    RIFF 3

       Bm                                  Em             A
E|---7--2------2-------7--2------2-------3------3-3-3/5-5-----12-10-9--|
B|---------3-------3---------3-------3-------3------------5------------|
G|---------------------------------------------------------------------|
D|---------------------------------------------------------------------|
A|---------------------------------------------------------------------|
E|---------------------------------------------------------------------|

       Bm                                   F#m              Em
E|---2-----------2-------7--2------2--------------9-9---------12-12--|
B|-------3-----------3---------3-------9--10------------9--7---------|
G|-----------4--------------------------------11---------------------|
D|-------------------------------------------------------------------|
A|-------------------------------------------------------------------|
E|-------------------------------------------------------------------|

    G  O

       Bm               Em                     A     F#m           A
E|--------------------3-2-0--3-2-0-----------------2-------------3-2-0-----3-2-0------|
B|---0--0--0-2-3-4-5---------------3-2h3p2------2-------0--3-4-5-------3-2-------3-2--|
G|-----------------------------------------2------------------------------------------|
D|-------------------------------------------4----------------------------------------|
A|------------------------------------------------------------------------------------|
E|------------------------------------------------------------------------------------|

      Bm                 Em                     A    F#m            A
E|--------2------------3-2-0--3-2-0----------------2--------------3-2-0-----5-3-2------|
B|--0--2----0-2-3-4-5---------------3-2h3p2-----2------0--2-3-4-5-------3-2-------5-3--|
G|------------------------------------------2------------------------------------------|
D|--------------------------------------------4----------------------------------------|
A|-------------------------------------------------------------------------------------|
E|-------------------------------------------------------------------------------------|

      D                          A                              D                    A
E|--2-----2-----2-----2------|----0------------------------|--2-----2-----2------|----0-0-----0-0--|
B|----3-----3-----3-----3----|----------3-----2-------3----|----3-----3-----3----|-----------------|
G|------2-----2-----2-----2--|-2-----2-----2-----2-0-----2-|------2-----2-----2--|-2-------2-------|
D|---------------------------|-----------------------------|---------------------|-----------------|
A|---------------------------|-----------------------------|---------------------|-----------------|
E|---------------------------|-----------------------------|---------------------|-----------------|

    ESTRIBILLO

    Esta parte es igual que VERSO, pero al final varía :
                     (..más de un segundo en ti..)

      Bm                G        A                  Bm                F#m               Bm
E|--2-2-2-2-2-2-2-2-2-3---2-0-----0---| |--2-2-2-2-2-2-2-2---5--2--------------2--|
B|--3-3-3-3-3-3-3-3------------3------| |--3-3-3-3-3-3-3-3---------3--2h3p2----3--|
G|--4-4-4-4-4-4-4-4-------------------| Repite |--4-4-4-4-4-4-4-4------------------2--4--|
D|--4-4-4-4-4-4-4-4-------------------| 3x   |--4-4-4-4-4-4-4-4---------------------4--|
A|--2-2-2-2-2-2-2-2-------------------| |--2-2-2-2-2-2-2-2---------------------2--|
E|--2-2-2-2-2-2-2-2-------------------| |--2-2-2-2-2-2-2-2---------------------2--|
Outros vídeos desta música
    525 exibições
      • ½ Tom
      • Am
      • Bbm
      • Bm
      • Cm
      • C#m
      • Dm
      • Ebm
      • Em
      • Fm
      • F#m
      • Gm
      • G#m
    • Adicionar à lista

    Afinação da cifra

    Afinador online

      0 comentários

      Ver todos os comentários

      Entre para o Cifra Club PRO

      Tenha acesso a benefícios exclusivos no App e no Site

      • Chega de anúncios

      • Badges exclusivas

      • Mais recursos no app do Afinador

      • Atendimento Prioritário

      • Aumente seu limite de lista

      • Ajude a produzir mais conteúdo

      Cifra Club Pro

      Aproveite o Cifra Club com benefícios exclusivos e sem anúncios
      Cifra Club Pro
      Aproveite o Cifra Club com benefícios exclusivos e sem anúncios
      OK