Cifra Club

Hino Oficial do Clube Atlético Paranaense

Hinos de Futebol

Cifra: Principal (violão e guitarra)
tom: G
Refrão:
G                   G/B  A#º          Am
Atlético! Atlético! Conhecemos teu valor,
  C              G            C/E   D/F#   G
E a camisa Rubro Negra, só se veste por amor.
  C              G            C/E   D/F#   G
E a camisa Rubro Negra, só se veste por amor.

Verso 1:
G                              G/B     A#º    Am
Vamos marchar, sempre cantando, o hino do furacão,
C               G        C/E   D/F#    G
E no peito ostentando, a faixa de campeão.

Refrão:

Verso 2:
G                     G/B A#º          Am
O coração atleticano, estará sempre voltado,
C/E                  G/B          Am7         D7
Para os feitos do presente, e as glórias do passado.

Refrão

Verso 3:
G                           G/B   A#º          Am
À tradição, vigor sem jaça, nos legou o sangue forte,
C/E                  G/B                Am7          D7
Rubro Negro é quem tem raça, e não teme a própria morte.

Refrão

» Tablatura.

--------------------7---7-6-6---6-6-5----------------4-----------------
-0-5-2-0--0-5-7-9------------------------4-5-4-----5------------4-7-5--
---------------------------------------6-------6-4------4-4-6-4--------
-----------------------------------------------------------------------

aqui está outra versão para a tablatura!

E||----|-------7--------------|------------------7----|
B|----|------------8---------|-------8----10---------|
G|----|--7--------------7----|--7--------------------|
D|----|----------------------|-----------------------|
A|----|----------------------|-----------------------|
E|----|----------------------|-----------------------|

--10----10----10----9----|--9----9----9----8----|--------------------|
-------------------------|----------------------|---------------7----|
-------------------------|----------------------|--7----7h9----------|
-------------------------|----------------------|--------------------|
-------------------------|----------------------|--------------------|
-------------------------|----------------------|--------------------|

-----------------8----|--7----10----|--------------------|
--8---------8---------|-------------|--------------------|
-------9--------------|-------------|--7----7----7h9-----|
----------------------|-------------|--------------------|
----------------------|-------------|--------------------|
----------------------|-------------|--------------------|

-----------------7----|--7---------||
--8----8----7---------|-------8----||
----------------------|------------||
----------------------|------------||
----------------------|------------||
----------------------|------------||
00:00 / 00:00
Outros vídeos desta música
Repetir
Outros vídeos desta música
Composição de Zinder Lins
Colaboração e revisão:
  • Taino Vieira
21.490 exibições
    • ½ Tom
    • A
    • Bb
    • B
    • C
    • Db
    • D
    • Eb
    • E
    • F
    • F#
    • G
    • Ab
  • Adicionar à lista

    0 comentários

    Ver todos os comentários

    Conseguiu tocar?

    5 Tocaram 0 Ainda não

    Grave um vídeo tocando Hino Oficial do Clube Atlético Paranaense e nos envie!

    Toque também

    1. Imagem do artista Hinos de Países Hino do Brasil Hinos de Países
    2. Imagem do artista Cowboys Espirituais A Irmã do Dr. Robert Cowboys Espirituais
    3. Imagem do artista Ataque Colorado Papai É o Maior Ataque Colorado
    4. Imagem do artista Raulzito e Os Panteras Me Deixa Em Paz Raulzito e Os Panteras

    Entre para oCifra Club PRO

    Tenha acesso a benefícios exclusivos no App e no Site

    • Chega de anúncios

    • Prioridade de compra em lançamentos

    • Mais recursos no app do Afinador

    • Atendimento Prioritário

    • Descontos nos produtos Cifra Club

    • Ajude a produzir mais conteúdo

    00:00 / 00:00

    Cifra Club Pro

    Aproveite o Cifra Club com benefícios exclusivos e sem anúncios
    Cifra Club Pro
    Aproveite o Cifra Club com benefícios exclusivos e sem anúncios
    OK