Cifra Club

Venezia

Hombres G

Cifra: Principal (violão e guitarra)
tom: Db
1.
E|--------------------------------------------------------|
B|-7p6-6-6---------6h7p6----------------------------------|
G|---------6-6---6-------6---6-6-------------------------|
D|-------------8-----------8--------3-4-3-4-3-4/6-4-3-3---|
A|------------------------------------------------------4-|
E|--------------------------------------------------------|

E|---------------------------------9----------------------|
B|-7-7-7-6-7-6--------9-6-6----------7-6-7-7/9--9-9-9-----|
G|-------------6----6-------6----6------------------------|
D|--------------------------------------------------------|
A|--------------------------------------------------------|
E|--------------------------------------------------------|

E|-----------------------------------------------------------------|
B|-----------------------------------------------------------------|
G|-----------------------------------------------------------------|
D|-3p4-3-3-------------------------3---3-3-3-3-3-3-6-6-6-6-4-4-3-3-|
A|---------4-4-4-4-4-4-4-4-4-4-4-4---4-----------------------------|
E|-----------------------------------------------------------------|

E|-----------------------------------------------------------------|
B|-----------------------------------------------------------------|
G|-----------------------------------------------------------------|
D|----3-3-4-4-6-6/8-6-6/8-6--4-3-4-3-4-4/6-6-4-3-4-----------------|
A|-/4-----------------------------------------------/4-4-3---------|
E|-----------------------------------------------------------------|

E|------------------------------------------------------------------------|
B|------------------------------------------------------------------------|
G|------------------------------------------------------------------------|
D|--------------------------------------------------------------3h4| 4/6-6-|
A|-/4-4-4-4-4-4-4-4-4-4-4-4---/4-4/6-6/8-8-8-8--4/6-6-6-6-4-3-4-----------|
E|--------------------------4---------------------------------------------|

E|------------------------------------------------------------------------|
B|------------------------------------------------------------------------|
G|-----------------------------------------------------------------3h6~~--|
D|-6/8-8\6-6/8-8/11-11-11/13-13-13/11-11--4-6-6-4-4-3-4-3-3-3h4-6--------|
A|------------------------------------------------------------------------|
E|------------------------------------------------------------------------|

3. el final:
E|--------------------------------------6---------------------------|
B|---6h7p6---6h7-6-------6h7p6--------------------------------------|
G|-6-------6-----------6-------6-6--6/8---8-6---6-------------------|
D|-------------------8------------------------8---8-8-8-6-6-6-4-4-4-|
A|------------------------------------------------------------------|
E|------------------------------------------------------------------|

E|--------------------------------------------------------------------|
B|--------------------------------------------------------------------|
G|--------------------------------------------------------------------|
D|-4-4-4--4-4-4-4-4-4--4-4-4-3-3-3-4-4-4-6-6-6--4-4-3-4-4/6-6-6-6/8-8-|
A|--------------------------------------------------------------------|
E|--------------------------------------------------------------------|

E|----------------------|
B|-------7--6-6---------|
G|--6-6----------6-6~~~~|
D|----------------------|
A|----------------------|
E|----------------------|
Composição de David Summers Rodriguez
123 exibições
    • ½ Tom
    • A
    • Bb
    • B
    • C
    • Db
    • D
    • Eb
    • E
    • F
    • F#
    • G
    • Ab
  • Adicionar à lista

    0 comentários

    Ver todos os comentários

    Conseguiu tocar?

    0 Tocaram 0 Ainda não

    Grave um vídeo tocando Venezia e nos envie!

    00:00 / 00:00
    Outros vídeos desta música
    Repetir Qualidade Automático
    Outros vídeos desta música
    00:00 / 00:00
    Automático

    Cifra Club Pro

    Aproveite o Cifra Club com benefícios exclusivos e sem anúncios
    Cifra Club Pro
    Aproveite o Cifra Club com benefícios exclusivos e sem anúncios
    OK