Notificações Amigos pendentes

      Hugo e Tiago

      O Amor de Antes

      32.546 exibições
      Tom: G
      Intro:
      
          Am           G    F                   C       (C G/B Am)
      E|-15-------15-------15-------15-----------------|
      B|----12-13-----15------12-13-----13-15-17-13----|
      G|--------------------------------------------12-|
      D|-----------------------------------------------|
      A|-----------------------------------------------|
      E|-----------------------------------------------|
      
      
      Guitarra:
      
          Am                 Em      F                 G
      E|-12/15-------12/15--15~--12/15-------12/15--12/15-13\12----|
      B|-------12-13-------------------12-13--------------------15-|
      G|-----------------------------------------------------------|
      D|-----------------------------------------------------------|
      A|-----------------------------------------------------------|
      E|-----------------------------------------------------------|
      
      
      Teclado:
      
          Am           G    F                   C       (C G/B Am)
      E|-15-------15-------15-------15-----------------|
      B|----12-13-----15------12-13-----13-15-17-13----|
      G|--------------------------------------------12-|
      D|-----------------------------------------------|
      A|-----------------------------------------------|
      E|-----------------------------------------------|
      
      
          Am           Em
      E|-15-------15-------15-------15-|
      B|----12-13-----15------12-13----|
      G|-------------------------------|
      D|-------------------------------|
      A|-------------------------------|
      E|-------------------------------|
      
      
      Am                            G
        Eu daria tudo pra olhar nos teus olhos
      F                         C        (C  G/B  Am)
        Eu daria tudo pra ouvir tua voz
                                         Em
        Te ouvir me dizendo que foi só engano
      F                                 G   (Em Am)
        Que o maior engano foi fugir de nós
      
      Am                           G       (C/E  F)
        Erros e acertos, medos e desejos
                                         C        (C  G/B  Am)
        Brigas sem sentido, coisas tão banais
                                       Em
        Que agora pesam, causam tantos danos
      F                               G
        Fere, nos machuca, faz doer demais
      
      F    Dm            C       (Am F) Dm        C      (G/B Am) (G  F)
           Deita em meus braços         por um instante
        Dm        C    (Am  F )           G        (G4  G)
        Que eu te faço         o amor de antes
      
      Refrão:
                  C      Am              Em      F
      Quero ser o mesmo,    sonho sem loucura
                Dm                F                 G
      E ser o desejo, quero ser o beijo que você procura
      F/A              G/B   C     Am              Em           F
             Feche os olhos, sente   pulsar no meu peito
               Dm                G                    C    (D)
      Esse coração que ama e que não consegue ser perfeito
      
      
      Solo: Bm  A  Em  D/F#  A4  A
      E|-17/19-17----17/19-19--17------------------------------------|
      B|----------19--------------19-15/17-17-17-15-14---------------|
      G|-----------------------------------------------16-14-12-10\9-|
      D|-------------------------------------------------------------|
      A|-------------------------------------------------------------|
      E|-------------------------------------------------------------|
      
      
      E|----------------------------------------12/14-15-14-14h15\12-10h12p10-|
      B|--------------------12--14/17-17-14-----------------------------------|
      G|-8-9-9/11--11-12-14-----------------14--------------------------------|
      D|----------------------------------------------------------------------|
      A|----------------------------------------------------------------------|
      E|----------------------------------------------------------------------|
      
      
      Riff 1:
      
      E|-10-12-15-10 -----------------|
      B|-------------10-10p8-10-10/12-|
      G|------------------------------|
      D|------------------------------|
      A|------------------------------|
      E|------------------------------|
      
      
      Riff 2:
      E|-------|
      B|---6-8-|
      G|-8-----|
      D|-------|
      A|-------|
      E|-------|
      
      Riff 3:
      
      E|-----------------------|
      B|----13-15--13-------13-|
      G|-15-----------15-12----|
      D|-----------------------|
      A|-----------------------|
      E|-----------------------|
      
      
      Riff 4:
      
      E|-12/14-12p10-12/14~12--9h10p9----|
      B|------------------------------12-|
      G|---------------------------------|
      D|---------------------------------|
      A|---------------------------------|
      E|---------------------------------|
      
      
      Riff 5:
      
      E|-----------|
      B|-10/12-10~-|
      G|-----------|
      D|-----------|
      A|-----------|
      E|-----------|
      
      
      Riff 6:
      
      E|-----------|
      B|-8-10/12---|
      G|---------7-|
      D|-----------|
      A|-----------|
      E|-----------|
      
      
      Riff 7:
      
      E|-14-15-17-12/14-|
      B|----------------|
      G|----------------|
      D|----------------|
      A|----------------|
      E|----------------|
      
      
      Riff 8:
      
      E|-12p10-------|
      B|-------10/12-|
      G|-------------|
      D|-------------|
      A|-------------|
      E|-------------|
      
      
      Riff 9:
      
      E|-17/19-17-16-12/14-|
      B|-------------------|
      G|-------------------|
      D|-------------------|
      A|-------------------|
      E|-------------------|
      
      
      Riff 10:
      
      E|------------------------|
      B|-19-14-12--9h10p9-------|
      G|------------------10/12-|
      D|------------------------|
      A|------------------------|
      E|------------------------|
      
      
      Riff 11:
      
      E|-9/10p9----------|
      B|--------10-10/12-|
      G|-----------------|
      D|-----------------|
      A|-----------------|
      E|-----------------|
      
      
      G   Em            D           (Bm  G)
          Deita em meus braços     (Riff 1)
      Em        D      (A/C# Bm) (A  G)
      por um instante                   (Riff 2)
        Em         D    (Bm G )
        Que eu te faço   (Riff 3)
      
                 A        (A4  A)
      o amor de antes
                  D      Bm             F#m      G
                       (Riff 4)
      Quero ser o mesmo,    sonho sem loucura
                Em                G                 A
      E ser o desejo, quero ser o beijo que você procura
      G/B               A/C#  D     Bm              F#m           G
                                (Riff 5)                     (Riff 6)
             Feche os olhos,  sente   pulsar no meu peito
               Em                A                    D     (Riff 7)
      Esse coração que ama e que não consegue ser perfeito
                  D      Bm              F#m      G
      Quero ser o mesmo,    sonho sem loucura    (Riff 8)
                Em                G                 A    (Riff 9)
      E ser o desejo, quero ser o beijo que você procura
      G/B               A/C#  D     Bm              F#m           G                             (Riff 10)
             Feche os olhos,  sente   pulsar no meu peito
               Em                A                    D
      Esse coração que ama e que não consegue ser perfeito  (Riff 11)
        Composição: Compositor: Rick / Kadú Ferraz / Victor HenriqueColaboração e revisão:
        • allanmineiro
        • a.c.silva

        Comentários 3

        140 .
        • allanmineiro allanmineiro: Em 31/10/2011 16:56

          tá aí edimar16bahia
          acho q fico bem legal espero q gostem da minha versão completa vlw

        • edimar16bahia edimar16bahia: Em 07/08/2011 18:43

          queria o solo

        140 cancelar

        conseguiu tocar?

        covers

        Grave um vídeo tocando O Amor de Antes e mande pra gente!

        Ex.: http://www.youtube.com/watch?v=0IvSvIwGdwk
        ver covers de outras músicas »
        0:00 / 0:00

        Capítulos

          1 versão de violão dificuldade exibições contribuição e correção
          1 versão de guitarra dificuldade exibições contribuição e correção
          1 versão de cavaco dificuldade exibições contribuição e correção
          1 versão de teclado dificuldade exibições contribuição e correção
          play/pausefechar subir/descer velocidade
          6ª corda E5ª corda A4ª corda D3ª corda G2ª corda B1ª corda E
            acordes
            publicidade
            fechar
            ok