Cifra Club

Não Fala Não Pra Mim (part. Jerry Smith)

Humberto e Ronaldo

Cifra: Principal (violão e guitarra)
tom: Eb
[Intro] Eb  Bb  Cm  Ab

E|----------11-13-15---------15-15-15-16-15-16-15-13-------|
B|-11-11-11----------11-11---------------------------11-11-|
G|---------------------------------------------------------|
D|---------------------------------------------------------|
A|---------------------------------------------------------|
E|---------------------------------------------------------|

E|-10-10-10-11-10-11-10-8-10-11-10-8-----------------------|
B|---------------------------------------------------------|
G|---------------------------------------------------------|
D|---------------------------------------------------------|
A|---------------------------------------------------------|
E|---------------------------------------------------------|

E|-10-10-10-11-10-11-10-8-8-8-10-11-10-8-------------------|
B|---------------------------------------------------------|
G|---------------------------------------------------------|
D|---------------------------------------------------------|
A|---------------------------------------------------------|
E|---------------------------------------------------------|

[Primeira Parte]

                 Eb
Lá vai minha saudade

Beber uns Danone
                 Bb
Pra ver se a vontade
                       Cm
De te ver some de uma vez

Da minha cabeça

Eu já to vendo
   Ab
A surra de enxaqueca
              Eb
Lá vai meu orgulho

Perdendo a vergonha
              Bb
A comanda enchendo

Os dedos tremendo
             Cm
Com vontade de ligar
                      Ab
Já to com medo de me rejeitar

[Refrão]

                  Eb
Não fala não pra mim, bebê
                Bb
Senão eu morro de beber
                    Cm
Nessa fossa que eu tô, não dá
                 Ab
E é só você pra me salvar
                  Eb
Não fala não pra mim, bebê
                Bb
Senão eu morro de beber
                Cm
Fala que ainda sou o seu amor
               Ab
Ô Jerry Smith me ajuda, por favor

[Segunda Parte]

      Eb
Ô, bebê, sinto falta de te ver aqui
    Bb
Sentando, quicando
                             Cm
Beijando essa boca que é só sua

Igual a você não acho
              Ab
Nem na Terra nem na Lua

Jerry Smith chegou
        Fm
Pra ajudar Humberto e Ronaldo
              Bb
Atende o coração desse pobre coitado

[Refrão]

                  Eb
Não fala não pra mim, bebê
                Bb
Senão eu morro de beber
                    Cm
Nessa fossa que eu tô, não dá
                 Ab
E é só você pra me salvar
                  Eb
Não fala não pra mim, bebê
                Bb
Senão eu morro de beber
                Cm
Fala que ainda sou o seu amor
               Ab
Salva meu coração, por favor

                  Eb
Não fala não pra mim, bebê

( Bb  Cm  Ab )

[Segunda Parte]

      Eb
Ô, bebê, sinto falta de te ver aqui
    Bb
Sentando, quicando
                             Cm
Beijando essa boca que é só sua

Igual a você não acho
              Ab
Nem na Terra nem na Lua

Jerry Smith chegou
        Fm
Pra ajudar Humberto e Ronaldo
              Bb
Atende o coração desse pobre coitado

[Refrão]

                  Eb
Não fala não pra mim, bebê
                Bb
Senão eu morro de beber
                    Cm
Nessa fossa que eu tô, não dá
                 Ab
E é só você pra me salvar
                  Eb
Não fala não pra mim, bebê
                Bb
Senão eu morro de beber
                Cm
Fala que ainda sou o seu amor
              Ab
Humberto e Ronaldo, ajuda por favor

                  Eb
Não fala não pra mim, bebê
                Bb
Senão eu morro de beber
                Cm
Fala que ainda sou o seu amor
              Ab
Humberto e Ronaldo, ajuda por favor
                  Eb
Não fala não pra mim, bebê
00:00 / 00:00
Outros vídeos desta música
Repetir
Outros vídeos desta música
Composição de Thales Lessa
Colaboração e revisão:
  • Guilherme Rodrigues
  • Lucas Kappaun
194.624 exibições
    • ½ Tom
    • A
    • Bb
    • B
    • C
    • Db
    • D
    • Eb
    • E
    • F
    • F#
    • G
    • Ab
  • Adicionar à lista

    0 comentários

    Ver todos os comentários

    Entre para oCifra Club PRO

    Tenha acesso a benefícios exclusivos no App e no Site

    • Chega de anúncios

    • Prioridade de compra em lançamentos

    • Mais recursos no app do Afinador

    • Atendimento Prioritário

    • Descontos nos produtos Cifra Club

    • Ajude a produzir mais conteúdo

    00:00 / 00:00

    Cifra Club Pro

    Aproveite o Cifra Club com benefícios exclusivos e sem anúncios
    Cifra Club Pro
    Aproveite o Cifra Club com benefícios exclusivos e sem anúncios
    OK