Cifra Club

Só Vou Beber Mais Hoje

Humberto e Ronaldo

Cifra: Principal
exibições 273.404
Tom: C
Am               F                    C
  Já fiz uma promessa e deus vai me ajudar,
                       G
  Eu só vou beber mais hoje, amanhã eu vou parar.
Am                  F                    C
  Eu já fiz uma promessa e deus vai me ajudar,
                       G
  Eu só vou beber mais hoje, amanhã eu vou parar.
    Am                           F                    C
  Eu vou parar, eu vou parar, eu vou parar eu vou parar,
                       G
  Eu só vou beber mais hoje, amanhã vou parar.
Solo:
    Am              F                 C       G
E|---------------------------------------|
B|---------------------------------------|
G|-------5-------5-------5------5-7-7/9--|
D|-7-777---7-777---7-777---7-77----------|
A|---------------------------------------|
E|---------------------------------------|

    Am              F                 C       G
E|---------------------------------------|
B|---------------------------------------|
G|-------5-------5-------5------5-7-7/9--|
D|-7-777---7-777---7-777---7-77----------|
A|---------------------------------------|
E|---------------------------------------|


Am                    F
  Só ter uma festinha, que a galera me chama,
 C                    G
  Tenho dois apelidos: pinguço e pé de cana.
  Am                    F
  Casamento, batizado, formatura, aniversário,
  C                 G
  E até chá de bebe, tô pronto pra beber.

  Am                       F
  Mais eu sei que faz mal, decidi vou parar,
  C                    G
  Só mais hoje e amanhã não dá, não dá, não dá.
  Am                       F
  Mais eu sei que faz mal, decidi vou parar,
  C                    G
  Só mais hoje e amanhã não dá, não dá, não dá.

Refrão:

Am               F                    C
  Já fiz uma promessa e deus vai me ajudar,
                       G
  Eu só vou beber mais hoje, amanhã eu vou parar.
Am                  F                    C
  Eu já fiz uma promessa e deus vai me ajudar,
                       G
  Eu só vou beber mais hoje, amanhã eu vou parar.
    Am                           F                    C
  Eu vou parar, eu vou parar, eu vou parar eu vou parar,
                       G
  Eu só vou beber mais hoje, amanhã vou parar.
Solo:
    Am              F                 C       G
E|---------------------------------------|
B|---------------------------------------|
G|-------5-------5-------5------5-7-7/9--|
D|-7-777---7-777---7-777---7-77----------|
A|---------------------------------------|
E|---------------------------------------|
    Am              F                 C       G
E|---------------------------------------|
B|---------------------------------------|
G|-------5-------5-------5------5-7-7/9--|
D|-7-777---7-777---7-777---7-77----------|
A|---------------------------------------|
E|---------------------------------------|


Am                    F
  Só ter uma festinha, que a galera me chama,
 C                    G
  Tenho dois apelidos: pinguço e pé de cana.
  Am                    F
  Casamento, batizado, formatura, aniversário,
  C                 G
  E até chá de bebe, tô pronto pra beber.

  Am                       F
  Mais eu sei que faz mal, decidi vou parar,
  C                    G
  Só mais hoje e amanhã não dá, não dá, não dá.
  Am                       F
  Mais eu sei que faz mal, decidi vou parar,
  C                    G
  Só mais hoje e amanhã não dá, não dá, não dá.
Refrão:

Am               F                    C
  Já fiz uma promessa e deus vai me ajudar,
                       G
  Eu só vou beber mais hoje, amanhã eu vou parar.
Am                  F                    C
  Eu já fiz uma promessa e deus vai me ajudar,
                       G
  Eu só vou beber mais hoje, amanhã eu vou parar.
    Am                           F                    C
  Eu vou parar, eu vou parar, eu vou parar eu vou parar,
                       G
  Eu só vou beber mais hoje, amanhã vou parar.
Solo:
    Am              F                 C       G
E|---------------------------------------|
B|---------------------------------------|
G|-------5-------5-------5------5-7-7/9--|
D|-7-777---7-777---7-777---7-77----------|
A|---------------------------------------|
E|---------------------------------------|

    Am              F                 C
E|---------------------------------------|
B|---------------------------------------|
G|-------5-------5-------5------5-7-7/9--|
D|-7-777---7-777---7-777---7-77----------|
A|---------------------------------------|
E|---------------------------------------|
Acordes para:
    Colaboração e revisão:
    • Mateus Urio
    • Thomas Leonardo

    0 comentários

      mostrar mais comentários

      Conseguiu tocar?

      46tocaram2ainda não

      Grave um vídeo tocando Só Vou Beber Mais Hoje e mande pra gente!

      00:00 / 00:00
      outros vídeos desta música
      repetirqualidadeautomática
      Outro vídeos desta música
        00:00 / 00:00
        automática
        OK