Cifra Club

The Art Of A Mourning Kind

In Mourning

Cifra: Principal (violão e guitarra)
Selo Cifra Club: esta cifra foi revisada para atender aos critérios oficiais da nossa Equipe de Qualidade.
tom: Em
 [Intro] X3
E|--5---0-5-3---2---0-----(12)--(12)-----10---10-8-7---5--|--5---0-5-3---2---0------------------------|
B|----------------------0----(12)--(12)-------------------|----------------------0----10//12////5--4--|
G|--------------------------------------------------------|-------------------------------------------|
D|--------------------------------------------------------|-------------------------------------------|
A|--------------------------------------------------------|-------------------------------------------|
E|--------------------------------------------------------|-------------------------------------------|

 [End of intro riff] X2
E|-----------------------------------------------------------------------------|
B|----------------------------------------------------------12-12-12-12-8-8-8--|
G|--9-9-9-9-9-9-9-9-9//15-15-15-15//8-8-8-9-9-9-9-9-9-9-9-9--------------------|
D|--7-7-7-7-7-7-7-7-7//13-13-13-13//6-6-6-7-7-7-7-7-7-7-7-7-10-10-10-10-6-6-6--|
A|-----------------------------------------------------------------------------|
E|-----------------------------------------------------------------------------|

E|--------------------------------------------------------------------------------|
B|---------------------------------------------------------12-12-12--16-16-16-16--|
G|--9-9-9-9-9-9-9-9-9//15-15-15-15//8-8-8-9-9-9-9-9-9-9-9-------------------------|
D|--7-7-7-7-7-7-7-7-7//13-13-13-13//6-6-6-7-7-7-7-7-7-7-7--10-10-10--14-14-14-14--|
A|--------------------------------------------------------------------------------|
E|--------------------------------------------------------------------------------|

 [Djentriff with too much zeros]
E|-------------------------------------------------------------------------------|-----------------------|
B|-------------------------------------------------------------------------------|-----------------------|
G|-------------------------------------------------------------------------------|-12-12-12--11-11-11-11-|
D|-------------------------------------------------------------------------------|-----------------------|
A|-2-2-2-2-2-2-2-2-2-2-2-2-2-2-2-2-2-2-2-2-2-2-2-2-2-2-2-2-2-2-2-2-2-2-2-2-2-2-2-|-10-10-10--9--9--9--9--|
E|-0-0-0-0-0-0-0-0-0-0-0-0-0-0-0-0-0-0-0-0-0-0-0-0-0-0-0-0-0-0-0-0-0-0-0-0-0-0-0-|-----------------------|
    ' ' ' ' ' ' ' ' ' ' ' ' ' ' ' ' ' ' ' ' ' ' ' ' ' ' ' ' ' ' ' ' ' ' ' ' ' ' '

[Chorus] X2
E|---------------------------------------------------------------------------|
B|---------------------------------------------------------------------------|
G|---------------------------------------------------------------------------|
D|-------------------12-12-12-12-8-8-8---------------------------8-8-8-8-----|
A|-2-2-2-2-2-2-2-2-2-10-10-10-10-6-6-6-2-2-2-2-2-2-2-2-8-8-8-8-8-6-6-6-6-----|
E|-0-0-0-0-0-0-0-0-0-------------------0-0-0-0-0-0-0-0-6-6-6-6-6-------------|

 [Verse]
E|---------------------------------|------------------------------------------|
B|---------------------------------|------------------------------------------|
G|---------------------------------|------------------------------------------|
D|-------------2-2--2--------------|-------------2-2--2-----------------------|
A|--2-----2-1--1-1--1-----2-1-5-4--|--2-----2-1--1-1--1-----------------------|
E|--0---3---------------3----------|--0---3---------------0-3-5-6-5-----------|

 [Breakdown] X4 with palm-mutes, and then X4 without palm-mutes
E|---------------------------------------------------------------------------|
B|---------------------------------------------------------------------------|
G|---------------------------------------------------------------------------|
D|------------------x-5-5-5-4-4-4-4------------------------------------------|
A|------------------x-3-3-3-2-2-2-2------------------------------------------|
E|--0-3-2-0-6-5-0-3-0--------------------------------------------------------|
     ' ' ' ' ' ' ' ' '

 ["Buildup"] X2 without palm-mutes, and then X2 with palm-mutes
E|-----------------------------------------------------------------------------------|
B|-----------------------------------------------------------------------------------|
G|-----------------------------------------------------------------------------------|
D|-----------------------------------------------------------------------------------|
A|--7-7-7-7-7-7-7-7-8-8-8-8-8-8-8-8-10-10-10-10-10-10-10-10-12-12-12-12-12-12-12-----|
E|--5-5-5-5-5-5-5-5-6-6-6-6-6-6-6-6-8--8--8--8--8--8--8--8--10-10-10-10-10-10-10-----|

 [Verse] X4 
E|---------------------------------|------------------------------------------|
B|---------------------------------|------------------------------------------|
G|---------------------------------|------------------------------------------|
D|-------------2-2--2--------------|-------------2-2--2-----------------------|
A|--2-----2-1--1-1--1-----2-1-5-4--|--2-----2-1--1-1--1-----------------------|
E|--0---3---------------3----------|--0---3---------------0-3-5-6-5-----------|

 [Chorus] X2
E|---------------------------------------------------------------------------|
B|---------------------------------------------------------------------------|
G|---------------------------------------------------------------------------|
D|-------------------12-12-12-12-8-8-8---------------------------8-8-8-8-----|
A|-2-2-2-2-2-2-2-2-2-10-10-10-10-6-6-6-2-2-2-2-2-2-2-2-8-8-8-8-8-6-6-6-6-----|
E|-0-0-0-0-0-0-0-0-0-------------------0-0-0-0-0-0-0-0-6-6-6-6-6-------------|

 [Last buildup]
E|------------------------------------------|
B|------------------------------------------|
G|------------------------------------------|
D|--2---------------------------------------|
A|--2---------5---4-----5---4---///---------|
E|--0-------3---3-----3---3-----///---------|

 [Outro] X8 
E|----------------------------|----------------------------|
B|----------------------------|----------------------------|
G|----------------------------|----------------------------|
D|----------------------------|----------------------------|
A|----------------------------|----------------------------|
E|----------------------------|----------------------------|
E|----------------------------|----------------------------|
B|--0-0-0-0--0-0-0-0--0-0-0-0-|-0-0-0-0--0-0-0-0--0-0-0-0--|
     ' ' ' '  ' ' ' '  ' ' ' '   ' ' ' '  ' ' ' '  ' ' ' '  

 [Clean melody over the Breakdown] X2
E|---------------------------------------------------------------------------|
B|---------------------------------------------------------------------------|
G|-----9---8------9---8--------12----11--------12----11----------------------|
D|---7---7------7---7-------10----10--------10----10-------------------------|
A|---------------------------------------------------------------------------|
E|---------------------------------------------------------------------------|


************************************

| x   Dead note
| /   Slide
| '   Palm mute
Outros vídeos desta música
7 exibições
    • ½ Tom
    • Am
    • Bbm
    • Bm
    • Cm
    • C#m
    • Dm
    • Ebm
    • Em
    • Fm
    • F#m
    • Gm
    • G#m
  • Adicionar à lista

Afinação da cifra

Afinador online

    0 comentários

    Ver todos os comentários

    Entre para o Cifra Club PRO

    Tenha acesso a benefícios exclusivos no App e no Site

    • Chega de anúncios

    • Mais recursos no app do Afinador

    • Atendimento Prioritário

    • Aumente seu limite de lista

    • Ajude a produzir mais conteúdo

    Cifra Club Pro

    Aproveite o Cifra Club com benefícios exclusivos e sem anúncios
    Cifra Club Pro
    Aproveite o Cifra Club com benefícios exclusivos e sem anúncios
    OK