Cifra Club

Yields Of Sand

In Mourning

Cifra: Principal (violão e guitarra)
Selo Cifra Club: esta cifra foi revisada para atender aos critérios oficiais da nossa Equipe de Qualidade.
tom: G
E|-10-10-10-10-10-10-10-10-10-10-10-10-10-10-10-10-10-10-10-10---------------|
B|---------------------------------------------------------------------------|
G|-7--7--7--7--7--7--7--7--7--7--7--7--7--7--7--7--7--7--7--7----------------|
D|---------------------------------------------------------------------------|
A|---------------------------------------------------------------------------|
E|---------------------------------------------------------------------------|

E|-10-10-10-10-10-10-10-10-10-10-10-10-10-10-10-10-10-10-10-10---------------|
B|---------------------------------------------------------------------------|
G|-7--7--7--7--7--7--7--7--7--7--7--7--7--7--7--7--7--7--7--7----------------|
D|---------------------------------------------------------------------------|
A|---------------------------------------------------------------------------|
E|---------------------------------------------------------------------------|

E|-11-11-11-11-11-11-11-11-11-11-11-11-11-11-11-11-11-11-11-11---------------|
B|---------------------------------------------------------------------------|
G|-8--8--8--8--8--8--8--8--8--8--8--8--8--8--8--8--8--8--8--8----------------|
D|---------------------------------------------------------------------------|
A|---------------------------------------------------------------------------|
E|---------------------------------------------------------------------------|

E|-10-10-10-10-10-10-10-10-10-10-8-8-8-8-8-8-8-8-8-8---7r--------------------|
B|---------------------------------------------------(2| nd time)--------------|
G|-7--7--7--7--7--7--7--7--7--7--5-5-5-5-5-5-5-5-5-5---4r--------------------|
D|---------------------------------------------------------------------------|
A|---------------------------------------------------------------------------|
E|---------------------------------------------------------------------------|

[Verse] G.2 2X

E|---------------------------------------------------------------------------|
B|---------------------------------------------------------------------------|
G|---------------------------------------------------------------------------|
D|-------------------------| E SB NG-------------------------------------------|
A|---------------------------------------------------------------------------|
E|---------------------------------------------------------------------------|

[Break] Both guitars
E|---------------------------------------------------------------------------|
B|---------------------------------------------------------------------------|
G|-----2-2/3------------------2-2/3--/5--------------------------------------|
D|---5----------------------5------------------------------------------------|
A|-6----------6-5---------6--------------6-5---------------------------------|
E|----------3-----6-2------------------3-----6--2----------------------------|

E|---------------------------------------------------------------------------|
B|---------------------------------------------------------------------------|
G|-----2-------2--------2--------2-------------------------------------------|
D|---4---4---4---2----4---4----4---4-----------------------------------------|
A|---------------------------------------------------------------------------|
E|-2-------2-------2--------2--------2---------------------------------------|

[Pre-Chrous 1]
G.1
E|---------------------------------------------------------------------------|
B|---------------------------------------------------------------------------|
G|---------------------------------------------------------------------------|
D|-8--7--4-----8--7--4-----8--7--11-4--4-------8--7--4-----------------------|
A|-8--7--4-----8--7--4-----8--7--11-4--4-------8--7--4-----------------------|
E|-6--5--2-----6--5--2-----6--5--9--2--2-------6--5--2-----------------------|

[Pre-Chrous 1]
G.2
E|---------------------------------------------------------------------------|
B|-6-6-6---------------------------------------------------------------------|
G|-------8-8-8--5-5-5-5-5-5-5-5-5-5-3-3-3-3-3-3-3-3-3-3-3--------------------|
D|---------------------------------------------------------------------------|
A|---------------------------------------------------------------------------|
E|---------------------------------------------------------------------------|

E|---------------------------------------------------------------------------|
B|-6-6-6---------------------------------------------------------------------|
G|-------8-8-8--5-5-5-5-5-5-5-5-5-5-3-3-3-3-3-3-3-3-3-3-3--------------------|
D|---------------------------------------------------------------------------|
A|---------------------------------------------------------------------------|
E|---------------------------------------------------------------------------|

E|---------------------------------6-6-6-6-6-6-6-6---------------------------|
B|-6-6-6--------7-7-7-6-6-6-6-6-6--6-6-6-6-6-6-6-6---------------------------|
G|-------8-8-8---------------------------------------------------------------|
D|---------------------------------------------------------------------------|
A|---------------------------------------------------------------------------|
E|---------------------------------------------------------------------------|

E|---------------------------------------------------------------------------|
B|-6-6-6---------------------------------------------------------------------|
G|-------8-8-8--5-5-5-5-5-5-5-5-5-5-3-3-3-3-3-2-2-2-2-2-3-3-3-3-3------------|
D|---------------------------------------------------------------------------|
A|---------------------------------------------------------------------------|
E|---------------------------------------------------------------------------|

[Riffage 1]
G.1 2X
E|---------------------------------------------------------------------------|
B|---------------------------------------------------------------------------|
G|---------------------------------------------------------------------------|
D|---------------------------------------6---4-------4-----------------------|
A|-------------4---8---------4---------4---------4---------------------------|
E|-6-5-6---5-6---6---6---5-6---6---5-6-----6---6---6-------------------------|

PM
E|---------------------------------------------------------------------------|
B|---------------------------------------------------------------------------|
G|---------------------------------------------------------------------------|
D|-----------------------------4-----4---------------------------------------|
A|---------------------------------------------------------------------------|
E|-2--2--2--2--2--2--2--2--2-2---2-2----1--1--1--1--1--1--1--1--1------------|

E|---------------------------------------------------------------------------|
B|---------------------------------------------------------------------------|
G|---------------------------------------------------------------------------|
D|---------------------------------------6---4-------4-----------------------|
A|-------------4---8---------4---------4---------4---------------------------|
E|-6-5-6---5-6---6---6---5-6---6---5-6-----6---6---6-------------------------|

PM
E|---------------------------------------------------------------------------|
B|---------------------------------------------------------------------------|
G|---------------------------------------------------------------------------|
D|-----------------------------4-----4----------------------------7--7--7--7-|
A|----------------------------------------------------------------7--7--7--7-|
E|-2--2--2--2--2--2--2--2--2-2---2-2----1-1-1-1-1-1-1-1-1-1-1-1---5--5--5--5-|

[Riffage 1]
G.2 2X
E|---------------------------------------------------------------------------|
B|-----------------6---------------------9---7-------7-----------------------|
G|-------------6------------6----------6---------6---------------------------|
D|-8-7-8---7-8---8---8--7-8---8----7-8-----8---8---9-------------------------|
A|---------------------------------------------------------------------------|
E|---------------------------------------------------------------------------|

E|---------------------------------------------------------------------------|
B|-9--------9r----------9--------------6-------------------------------------|
G|------5-6-------------------5----------------------------------------------|
D|--------------------------------6------------------------------------------|
A|---------------------------------------------------------------------------|
E|---------------------------------------------------------------------------|

[Pre-Chrous 2]
G.1
E|---------------------------------------------------------------------------|
B|---------------------------------------------------------------------------|
G|---------------------------------------------------------------------------|
D|-8--7--4-----8--7--4-----8--7--11-4--4-------8--7--4-----------------------|
A|-8--7--4-----8--7--4-----8--7--11-4--4-------8--7--4-----------------------|
E|-6--5--2-----6--5--2-----6--5--9--2--2-------6--5--2-----------------------|

[Pre-Chrous 2]
G.2
E|---------------------------------------------------------------------------|
B|-6-6-6---------------------------------------------------------------------|
G|-------8-8-8--5-5-5-5-5-5-5-5-5-5-3-3-3-3-3-3-3-3-3-3-3--------------------|
D|---------------------------------------------------------------------------|
A|---------------------------------------------------------------------------|
E|---------------------------------------------------------------------------|

E|---------------------------------------------------------------------------|
B|-6-6-6---------------------------------------------------------------------|
G|-------8-8-8--5-5-5-5-5-5-5-5-5-5-3-3-3-3-3-3-3-3-3-3-3--------------------|
D|---------------------------------------------------------------------------|
A|---------------------------------------------------------------------------|
E|---------------------------------------------------------------------------|

E|---------------------------------6-6-6-6-6-6-6-6---------------------------|
B|-6-6-6--------7-7-7-6-6-6-6-6-6--6-6-6-6-6-6-6-6---------------------------|
G|-------8-8-8---------------------------------------------------------------|
D|---------------------------------------------------------------------------|
A|---------------------------------------------------------------------------|
E|---------------------------------------------------------------------------|

E|---------------------------------------------------------------------------|
B|-6-6-6---------------------------------------------------------------------|
G|-------8-8-8--5-5-5-5-5-5-5-5-5-5-3-3-3-3-3-2-2-2-2-2-3-3-3-3-3--3--3------|
D|---------------------------------------------------------------------------|
A|---------------------------------------------------------------------------|
E|---------------------------------------------------------------------------|

[Chorus 1]
G.1

E|---------------------------------------------------------------------------|
B|---------------------------------------------------------------------------|
G|---------------------------------------------------------------------------|
D|--8-8-8-8-8-8-8-8-8-7-7-7-7-8-8-8--4-4-4-4-4-4-4-4-4-4-4-4-7-7-7-7---------|
A|--8-8-8-8-8-8-8-8-8-7-7-7-7-8-8-8--4-4-4-4-4-4-4-4-4-4-4-4-7-7-7-7---------|
E|--6-6-6-6-6-6-6-6-6-5-5-5-5-6-6-6--2-2-2-2-2-2-2-2-2-2-2-2-5-5-5-5---------|

E|---------------------------------------------------------------------------|
B|---------------------------------------------------------------------------|
G|---------------------------------------------------------------------------|
D|--8-8-8-8-8-8-8-8-8-7-7-7-7-8-8-8--4-4-4-4-4-4-4-4-4-4-4-4-7s--------------|
A|--8-8-8-8-8-8-8-8-8-7-7-7-7-8-8-8--4-4-4-4-4-4-4-4-4-4-4-4-7s--------------|
E|--6-6-6-6-6-6-6-6-6-5-5-5-5-6-6-6--2-2-2-2-2-2-2-2-2-2-2-2-5s--------------|

E|---------------------------------------------------------------------------|
B|---------------------------------------------------------------------------|
G|---------------------------------------------------------------------------|
D|-3-3-3-3-3-3-3-3-3-3-3-3-3--4-4-4-4-4-4-4-4-4-7-7-7-7----------------------|
A|-3-3-3-3-3-3-3-3-3-3-3-3-3--4-4-4-4-4-4-4-4-4-7-7-7-7----------------------|
E|-1-1-1-1-1-1-1-1-1-1-1-1-1--2-2-2-2-2-2-2-2-2-5-5-5-5----------------------|

E|---------------------------------------------------------------------------|
B|---------------------------------------------------------------------------|
G|---------------------------------------------------------------------------|
D|-3-3-3-3-3-3-3-3-3-3-3-3-3--4-4-4-4-4-4-4-4-4-7-7-7-7---8-8-8-7-7-7-4------|
A|-3-3-3-3-3-3-3-3-3-3-3-3-3--4-4-4-4-4-4-4-4-4-7-7-7-7---8-8-8-7-7-7-4------|
E|-1-1-1-1-1-1-1-1-1-1-1-1-1--2-2-2-2-2-2-2-2-2-5-5-5-5---6-6-6-5-5-5-2------|

E|---------------------------------------------------------------------------|
B|---------------------------------------------------------------------------|
G|-----2-------2--------2----------------------------------------------------|
D|---4---4---4---4----4---4----8-8-8-8-8-8--3--------------------------------|
A|-----------------------------8-8-8-8-8-8--3--------------------------------|
E|---------2-------2-----------6-6-6-6-6-6--1--------------------------------| |

[Chorus 1]
G.2

E|-6-6-6-6-6-6s9-9-9-9-9-9-9-9--11-11-11-11-11-11--9-9-9-9-9-9-9-------------|
B|---------------------------------------------------------------------------|
G|-3-3-3-3-3-3s6-6-6-6-6-6-6-6--8--8--8--8--8--8---6-6-6-6-6-6-6-------------|
D|---------------------------------------------------------------------------|
A|---------------------------------------------------------------------------|
E|---------------------------------------------------------------------------|

E|-13-13-13-13-13-13--9-9-9-9-9-9--11-11-11-11--8-8-8-9-9-9-8-6-6-6----------|
B|---------------------------------------------------------------------------|
G|-10-10-10-10-10-10--6-6-6-6-6-6--8--8--8--8---5-5-5-6-6-6-5-3-3-3----------|
D|---------------------------------------------------------------------------|
A|---------------------------------------------------------------------------|
E|---------------------------------------------------------------------------|

D|-8-8-8-8-8-8-9-8-9-9-9-9-9-9-6-6-6-6-6-6-5-5-5-5-6-6-6-6-8-8-8-9-9-9-6-6-6-|
A|---------------------------------------------------------------------------|
F|-5-5-5-5-5-5-6-5-6-6-6-6-6-6-3-3-3-3-3-3-2-2-2-3-3-3-3-3-5-5-5-6-6-6-3-3-3-|
E|---------------------------------------------------------------------------|
B|---------------------------------------------------------------------------|
G|---------------------------------------------------------------------------|

D|-8-8-8-8-8-8-9-8-9-9-9-9-9-9-6-6-6-6-6-6-5-5-5-5-6-6-6-6-8-8-8-9-9-9-6-6-6-|
A|---------------------------------------------------------------------------|
F|-5-5-5-5-5-5-6-5-6-6-6-6-6-6-3-3-3-3-3-3-2-2-2-3-3-3-3-3-5-5-5-6-6-6-3-3-3-|
E|---------------------------------------------------------------------------|
B|---------------------------------------------------------------------------|
G|---------------------------------------------------------------------------|

D|-6-8-9-13----13b-9-9-9-8-8-8-6-5-6s8s5-------------------------------------|
A|---------------------------------------------------------------------------|
F|-3-5-6-10----10--6-6-6-5-5-5-3-2-3s5s2-------------------------------------|
E|---------------------------------------------------------------------------|
B|---------------------------------------------------------------------------|
G|---------------------------------------------------------------------------|

[Verse.2] G.1 5/4 2X

E|-10-10-10-10-10-10-10-10-10-10-10-10-10-10-10-10-10-10-10-10---------------|
B|---------------------------------------------------------------------------|
G|-7--7--7--7--7--7--7--7--7--7--7--7--7--7--7--7--7--7--7--7----------------|
D|---------------------------------------------------------------------------|
A|---------------------------------------------------------------------------|
E|---------------------------------------------------------------------------|

E|-10-10-10-10-10-10-10-10-10-10-10-10-10-10-10-10-10-10-10-10---------------|
B|---------------------------------------------------------------------------|
G|-7--7--7--7--7--7--7--7--7--7--7--7--7--7--7--7--7--7--7--7----------------|
D|---------------------------------------------------------------------------|
A|---------------------------------------------------------------------------|
E|---------------------------------------------------------------------------|

E|-11-11-11-11-11-11-11-11-11-11-11-11-11-11-11-11-11-11-11-11---------------|
B|---------------------------------------------------------------------------|
G|-8--8--8--8--8--8--8--8--8--8--8--8--8--8--8--8--8--8--8--8----------------|
D|---------------------------------------------------------------------------|
A|---------------------------------------------------------------------------|
E|---------------------------------------------------------------------------|

D|-10-10-10-10-10-10-10-10-10-10-8-8-8-8-8-8-8-8-8-8-------------------------|
A|---------------------------------------------------------------------------|
F|-7--7--7--7--7--7--7--7--7--7--5-5-5-5-5-5-5-5-5-5-------------------------|
E|---------------------------------------------------------------------------|
B|---------------------------------------------------------------------------|
G|---------------------------------------------------------------------------|

E|-10-10-10-10-10-10-10-10-10-10-10-10-10-10-10-10-10-10-10-10---------------|
B|---------------------------------------------------------------------------|
G|-7--7--7--7--7--7--7--7--7--7--7--7--7--7--7--7--7--7--7--7----------------|
D|---------------------------------------------------------------------------|
A|---------------------------------------------------------------------------|
E|---------------------------------------------------------------------------|

D|-8-8-8-8-8-8-8-8-8-8--10-10-10-10-10-10-10-10-10-10------------------------|
A|---------------------------------------------------------------------------|
F|-5-5-5-5-5-5-5-5-5-5--7--7--7--7--7--7--7--7--7--7------------------------|
E|---------------------------------------------------------------------------|
B|---------------------------------------------------------------------------|
G|---------------------------------------------------------------------------|

E|-11-11-11-11-11-11-11-11-11-11-11-11-11-11-11-11-11-11-11-11---------------|
B|---------------------------------------------------------------------------|
G|-8--8--8--8--8--8--8--8--8--8--8--8--8--8--8--8--8--8--8--8----------------|
D|---------------------------------------------------------------------------|
A|---------------------------------------------------------------------------|
E|---------------------------------------------------------------------------|

D|-13-13-13-13-13-13-13-13-15-15-15-15-15-15-15-15---------------------------|
A|---------------------------------------------------------------------------|
F|-10-10-10-10-10-10-10-10-12-12-12-12-12-12-12-12---------------------------|
E|---------------------------------------------------------------------------|
B|---------------------------------------------------------------------------|
G|---------------------------------------------------------------------------|

[Verse] G.2 2X

E|---------------------------------------------------------------------------|
B|---------------------------------------------------------------------------|
G|---------------------------------------------------------------------------|
D|-------------------------| E SB NG-------------------------------------------|
A|---------------------------------------------------------------------------|
E|---------------------------------------------------------------------------|

[Bridge] 
G.1 4x

E|---------------------------------------------------------------------------|
B|---------------------------------------------------------------------------|
G|--3-3-3-3-3-3--3-3-3-3--2-2-2-2-2-2-2--2-2-2-2-----------------------------|
D|--5-5-5-5-5-5--5-5-5-5--3-3-3-3-3-3-3--3-3-3-3-----------------------------|
A|--5-5-5-5-5-5--5-5-5-5--3-3-3-3-3-3-3--3-3-3-3-----------------------------|
E|--3-3-3-3-3-3--3-3-3-3--1-1-1-1-1-1-1--1-1-1-1-----------------------------|

E|---------------------------------------------------------------------------|
B|---------------------------------------------------------------------------|
G|--8--8--8--8--8--8--8--8--8--8---7-7-7-7-7-7-7-7-7-7-7-7--2-2-2-2-2-2-2-2--|
D|--10-10-10-10-10-10-10-10-10-10--8-8-8-8-8-8-8-8-8-8-8-8--3-3-3-3-3-3-3-3--|
A|--10-10-10-10-10-10-10-10-10-10--8-8-8-8-8-8-8-8-8-8-8-8--3-3-3-3-3-3-3-3--|
E|--8--8--8--8--8--8--8--8--8--8---6-6-6-6-6-6-6-6-6-6-6-6--1-1-1-1-1-1-1-1--|

[Bridge] 
G.2

D|-6-6-6-6-6-6-6-6-6-6-6-6-6-6-6-6-6-6-6-6-6-6-6-6-5-5-5-5-5-5-5-5-5-5-5-5-5-|
A|---------------------------------------------------------------------------|
F|-3-3-3-3-3-3-3-3-3-3-3-3-3-3-3-3-3-3-3-3-3-3-3-3-2-2-2-2-2-2-2-2-2-2-2-2-2-|
E|---------------------------------------------------------------------------|
B|---------------------------------------------------------------------------|
G|---------------------------------------------------------------------------|

D|-8-8-8-8-8-8-8-8-8-8-8-8-8-10-10-10-10-6-6-6-6-6-6-6-6-6-6-5-5-5-5-5-5-5-5-|
A|---------------------------------------------------------------------------|
F|-5-5-5-5-5-5-5-5-5-5-5-5-5-7-7-7-7-7-7-3-3-3-3-3-3-3-3-3-3-2-2-2-2-2-2-2-2-|
E|---------------------------------------------------------------------------|
B|---------------------------------------------------------------------------|
G|---------------------------------------------------------------------------|

D|-6-6-6-6-6-6-6-6-6-6-6-6-6-6-6-6-6-6-6-6-6-6-6-6-5-5-5-5-5-5-5-5-5-5-5-5-5-|
A|---------------------------------------------------------------------------|
F|-3-3-3-3-3-3-3-3-3-3-3-3-3-3-3-3-3-3-3-3-3-3-3-3-2-2-2-2-2-2-2-2-2-2-2-2-2-|
E|---------------------------------------------------------------------------|
B|---------------------------------------------------------------------------|
G|---------------------------------------------------------------------------|

D|-8-8-8-8-8-8-8-8-8-8-8-8-8-10-10-10-10-6-6-6-6-6-6-6-6-6-6-5-5-5-5-5-5-5-5-|
A|---------------------------------------------------------------------------|
F|-5-5-5-5-5-5-5-5-5-5-5-5-5-7-7-7-7-7-7-3-3-3-3-3-3-3-3-3-3-2-2-2-2-2-2-2-2-|
E|---------------------------------------------------------------------------|
B|---------------------------------------------------------------------------|
G|---------------------------------------------------------------------------|

D|-10-10-10-8-8-8-6-6-6-6-6-6-6-10-10-10-8-8-8-6-6-6-6-6-6--8--5-5-5-5-5-5-5-|
A|---------------------------------------------------------------------------|
F|-7--7--7--5-5-5-3-3-3-3-3-3-3-7--7--7--5-5-5-3-3-3-3-3-3--5--2-2-2-2-2-2-2-|
E|---------------------------------------------------------------------------|
B|---------------------------------------------------------------------------|
G|---------------------------------------------------------------------------|

D|-11-11-11-10-10-10-8-8-8---11-11-11-10-10-10-8-8-8--10-10--6-6-6-6-5-5-5-5-|
A|---------------------------------------------------------------------------|
F|-8--8--8--7--7--7--5-5-5---8--8--8--7--7--7--5-5-5--7--7---3-3-3-3-2-2-2-2-|
E|---------------------------------------------------------------------------|
B|---------------------------------------------------------------------------|
G|---------------------------------------------------------------------------|

D|-10-10-10-8-8-8-6-6-6-6-6-6-6-10-10-10-8-8-8-6-6-6-6-6-6--8--5-5-5-5-5-5-5-|
A|---------------------------------------------------------------------------|
F|-7--7--7--5-5-5-3-3-3-3-3-3-3-7--7--7--5-5-5-3-3-3-3-3-3--5--2-2-2-2-2-2-2-|
E|---------------------------------------------------------------------------|
B|---------------------------------------------------------------------------|
G|---------------------------------------------------------------------------|

D|-11-11-11-10-10-10-8-8-8---11-11-11-10-10-10-8-8-8--10-10--6-6-6-6-5-5-5-5-|
A|---------------------------------------------------------------------------|
F|-8--8--8--7--7--7--5-5-5---8--8--8--7--7--7--5-5-5--7--7---3-3-3-3-2-2-2-2-|
E|---------------------------------------------------------------------------|
B|---------------------------------------------------------------------------|
G|---------------------------------------------------------------------------|

[Break] Both guitars
E|---------------------------------------------------------------------------|
B|---------------------------------------------------------------------------|
G|-----2-2/3-----------------------------------------------------------------|
D|---5-----------------------------------------------------------------------|
A|-6-------------------------------------------------------------------------|
E|---------------------------------------------------------------------------|

[Chorus 2]
G.1

E|---------------------------------------------------------------------------|
B|---------------------------------------------------------------------------|
G|---------------------------------------------------------------------------|
D|--8-8-8-8-8-8-8-8-8-7-7-7-7-8-8-8--4-4-4-4-4-4-4-4-4-4-4-4-7-7-7-7---------|
A|--8-8-8-8-8-8-8-8-8-7-7-7-7-8-8-8--4-4-4-4-4-4-4-4-4-4-4-4-7-7-7-7---------|
E|--6-6-6-6-6-6-6-6-6-5-5-5-5-6-6-6--2-2-2-2-2-2-2-2-2-2-2-2-5-5-5-5---------|

E|---------------------------------------------------------------------------|
B|---------------------------------------------------------------------------|
G|---------------------------------------------------------------------------|
D|--8-8-8-8-8-8-8-8-8-7-7-7-7-8-8-8--4-4-4-4-4-4-4-4-4-4-4-4-7s--------------|
A|--8-8-8-8-8-8-8-8-8-7-7-7-7-8-8-8--4-4-4-4-4-4-4-4-4-4-4-4-7s--------------|
E|--6-6-6-6-6-6-6-6-6-5-5-5-5-6-6-6--2-2-2-2-2-2-2-2-2-2-2-2-5s--------------|

E|---------------------------------------------------------------------------|
B|---------------------------------------------------------------------------|
G|---------------------------------------------------------------------------|
D|-3-3-3-3-3-3-3-3-3-3-3-3-3--4-4-4-4-4-4-4-4-4-7-7-7-7----------------------|
A|-3-3-3-3-3-3-3-3-3-3-3-3-3--4-4-4-4-4-4-4-4-4-7-7-7-7----------------------|
E|-1-1-1-1-1-1-1-1-1-1-1-1-1--2-2-2-2-2-2-2-2-2-5-5-5-5----------------------|

E|---------------------------------------------------------------------------|
B|---------------------------------------------------------------------------|
G|---------------------------------------------------------------------------|
D|-3-3-3-3-3-3-3-3-3-3-3-3-3--4-4-4-4-4-4-4-4-4-7-7-7-7---8-8-8-7-7-7-4------|
A|-3-3-3-3-3-3-3-3-3-3-3-3-3--4-4-4-4-4-4-4-4-4-7-7-7-7---8-8-8-7-7-7-4------|
E|-1-1-1-1-1-1-1-1-1-1-1-1-1--2-2-2-2-2-2-2-2-2-5-5-5-5---6-6-6-5-5-5-2------|

[Chorus 2]
G.2

E|-6-6-6-6-6-6s9-9-9-9-9-9-9-9--11-11-11-11-11-11--9-9-9-9-9-9-9-------------|
B|---------------------------------------------------------------------------|
G|-3-3-3-3-3-3s6-6-6-6-6-6-6-6--8--8--8--8--8--8---6-6-6-6-6-6-6-------------|
D|---------------------------------------------------------------------------|
A|---------------------------------------------------------------------------|
E|---------------------------------------------------------------------------|

E|-13-13-13-13-13-13--9-9-9-9-9-9--11-11-11-11--8-8-8-9-9-9-8-6-6-6----------|
B|---------------------------------------------------------------------------|
G|-10-10-10-10-10-10--6-6-6-6-6-6--8--8--8--8---5-5-5-6-6-6-5-3-3-3----------|
D|---------------------------------------------------------------------------|
A|---------------------------------------------------------------------------|
E|---------------------------------------------------------------------------|

D|-8-8-8-8-8-8-9-8-9-9-9-9-9-9-6-6-6-6-6-6-5-5-5-5-6-6-6-6-8-8-8-9-9-9-6-6-6-|
A|---------------------------------------------------------------------------|
F|-5-5-5-5-5-5-6-5-6-6-6-6-6-6-3-3-3-3-3-3-2-2-2-3-3-3-3-3-5-5-5-6-6-6-3-3-3-|
E|---------------------------------------------------------------------------|
B|---------------------------------------------------------------------------|
G|---------------------------------------------------------------------------|

D|-8-8-8-8-8-8-9-8-9-9-9-9-9-9-6-6-6-6-6-6-5-5-5-5-6-6-6-6-8-8-8-9-9-9-6-6-6-|
A|---------------------------------------------------------------------------|
F|-5-5-5-5-5-5-6-5-6-6-6-6-6-6-3-3-3-3-3-3-2-2-2-3-3-3-3-3-5-5-5-6-6-6-3-3-3-|
E|---------------------------------------------------------------------------|
B|---------------------------------------------------------------------------|
G|---------------------------------------------------------------------------|

D|-6-8-9-13----13b-9-9-9-8-8-8-6-5-6s8s5-------------------------------------|
A|---------------------------------------------------------------------------|
F|-3-5-6-10----10--6-6-6-5-5-5-3-2-3s5s2-------------------------------------|
E|---------------------------------------------------------------------------|
B|---------------------------------------------------------------------------|
G|---------------------------------------------------------------------------|


[Outro]
G.1

E|---------------------------------------------------------------------------|
B|---------------------------------------------------------------------------|
G|---------------------------------------------------------------------------|
D|-4-4-4-3-3-3-3-3-3-3-3-4-4-4-3-3-3-3-3-3-3-3-3-3-3-3-3-3-3-3-3----4-4-4-3--|
A|-4-4-4-3-3-3-3-3-3-3-3-4-4-4-3-3-3-3-3-3-3-3-3-3-3-3-3-3-3-3-3----4-4-4-3--|
E|-2-2-2-1-1-1-1-1-1-1-1-2-2-2-1-1-1-1-1-1-1-1-1-1-1-1-1-1-1-1-1----2-2-2-1--|

G.2
E|---------------------------------------------------------------------------|
B|---------------------------------------------------------------------------|
G|---------------------------------------------------------------------------|
D|--------------------| {missing}----------------------------------------------|
A|---------------------------------------------------------------------------|
E|---------------------------------------------------------------------------|



************************************

| r   Release
| /   Slide up
| PM  Palm mute
| b   Bend
|     
************************************
Outros vídeos desta música
    • ½ Tom
    • A
    • Bb
    • B
    • C
    • Db
    • D
    • Eb
    • E
    • F
    • F#
    • G
    • Ab
  • Adicionar à lista

Afinação da cifra

Afinador online

    0 comentários

    Ver todos os comentários

    Entre para o Cifra Club PRO

    Tenha acesso a benefícios exclusivos no App e no Site

    • Chega de anúncios

    • Mais recursos no app do Afinador

    • Atendimento Prioritário

    • Aumente seu limite de lista

    • Ajude a produzir mais conteúdo

    Cifra Club Pro

    Aproveite o Cifra Club com benefícios exclusivos e sem anúncios
    Cifra Club Pro
    Aproveite o Cifra Club com benefícios exclusivos e sem anúncios
    OK