Cifra Club

Fim De Festa

Jão

Cifra: Principal (violão e guitarra)
Selo Cifra Club: esta cifra foi revisada para atender aos critérios oficiais da nossa Equipe de Qualidade.
tom: Bb (forma dos acordes no tom de G) Capotraste na 3ª casa
[Intro] Em  C9  G

[Tab - Intro]

   Em                  C9          G
E|------------------------------------3--3--3------|
B|---------------------3-----3--------3--3--3------|
G|----0-----2-----2/4-----------0-----0--0--0------|
D|-------------------------------------------------|
A|------------------------3------------------------|
E|-0-----0-----0-------------------3---------------|

         Em
Quando a festa acabar
       C9      G
Cê vai me procurar
             Em    C9  G
Com teus problemas

         Em
Com teu jeans, teu All Star
        C9        G
E a tristeza no olhar
           Em   C9  G
É o teu sistema

          Em
Só eu sei

O tanto que me dói
                 C9
Me entregar tão fácil
           G
E mesmo assim
                 Em
Vou enxugar teu olho

Me deixar de lado
          C9      G
E te guardar em mim

         Em
Sou teu amor de fim de festa
      C9         G
Tua bebida mais barata
         Em
Teu coração é tão gelado
             C9         G
Meu Deus, eu sou tão azarado
           Em
De me entregar no fim de festa
         C9         G
Eu só queria ir pra casa
           Em
Mas tô cuidando de você
           C9         G
O que eu fiz pra merecer

O teu amor de fim de festa?

( Em  C9  G )
( Em  C9  G )

[Tab - Passagem]

   Em                  C9          G
E|------------------------------------3--3--3------|
B|---------------------3-----3--------3--3--3------|
G|----0-----2-----2/4-----------0-----0--0--0------|
D|-------------------------------------------------|
A|------------------------3------------------------|
E|-0-----0-----0-------------------3---------------|

          Em
Sei, é sempre assim
        C9      G          Em      C9   G
Eu só sirvo pro fim da tua glória
      Em
Você chama atenção
         C9      G           Em      C9   G
Mas um a um eles vão todos embora

          Em
Só eu sei

O tanto que me dói
                 C9
Me entregar tão fácil
           G
E mesmo assim
                 Em
Vou enxugar teu olho

Me deixar de lado
          C9      G
E te guardar em mim

         Em
Sou teu amor de fim de festa
      C9         G
Tua bebida mais barata
         Em
Teu coração é tão gelado
             C9         G
Meu Deus, eu sou tão azarado
           Em
De me entregar no fim de festa
         C9         G
Eu só queria ir pra casa
           Em
Mas tô cuidando de você
           C9         G
O que eu fiz pra merecer
                     Em
O teu amor de fim de festa?

( Em  C9  G )
( Em  C9  G )

[Tab - Passagem 2]

   Em                  C9          G
E|------------------------------------3--3--3------|
B|---------------------3-----3--------3--3--3------|
G|----0-----2-----2/4-----------0-----0--0--0------|
D|-------------------------------------------------|
A|------------------------3------------------------|
E|-0-----0-----0-------------------3---------------|

                     Em    C9  G
O teu amor de fim de festa
                     Em    C9  G
O teu amor de fim de festa
00:00 / 00:00
Outros vídeos desta música
Repetir
Outros vídeos desta música
33.331 exibições
    • ½ Tom
    • A
    • Bb
    • B
    • C
    • Db
    • D
    • Eb
    • E
    • F
    • F#
    • G
    • Ab
  • Adicionar à lista

Afinação da cifra

Afinador online

    0 comentários

    Ver todos os comentários

    Entre para o Cifra Club PRO

    Tenha acesso a benefícios exclusivos no App e no Site

    • Chega de anúncios

    • Mais recursos no app do Afinador

    • Atendimento Prioritário

    • Aumente seu limite de lista

    • Ajude a produzir mais conteúdo

    00:00 / 00:00

    Cifra Club Pro

    Aproveite o Cifra Club com benefícios exclusivos e sem anúncios
    Cifra Club Pro
    Aproveite o Cifra Club com benefícios exclusivos e sem anúncios
    OK