Cifra Club

Jet Black

Jawbreaker

Cifra: Principal (violão e guitarra)
Tom: F#
from "dear you"

riff 1 (guitar 1)
|-------------------|
|-------------------|
|--6/8~--8/9\8--6~--| x2
|--x/x~--x/x\x--x~--|
|--4/6~--6/7\6--4~--|
|-------------------|

riff 2 (guitar 1)  
|-------------------------------------|
|--4---4---4---4h5p4-2---2---2---2----|
|----4---4---4---------4---4---4---4--| x2
|-------------------------------------|
|-------------------------------------|
|-------------------------------------|

riff 2 (guitar 2)
|--------------------------|
|--------------------------|
|--8----9----11----13----8-| x2
|--8-x8-9-x8-11-x8-13-x8-8-|
|--6----7-----9----11----6-|
|--------------------------|

verse riff (guitar 1)
|----------------------------|
|--4---4-----------2---2-----|
|----4---4~----------4---4~--| x3, then "riff 1" x1, then "verse riff" x1
|----------------------------|
|----------------------------|
|----------------------------|

pre chorus (both)
|-------------------------------|
|-------------------------------|
|-----------------4-4-4--6-6-6--|
|---4-4-4--6-6-6--4-4-4--6-6-6--|
|---4-4-4--6-6-6--2-2-2--4-4-4--|
|---2-2-2--4-4-4----------------|
pm  * *    * *    * *    * *

|----------------------------------|
|----------------------------------|
|----------------------------------|
|---4-4-4--6-6-6--7-7-7-7-7-7-7-7--|
|---4-4-4--6-6-6--7-7-7-7-7-7-7-7--|
|---2-2-2--4-4-4--5-5-5-5-5-5-5-5--|
pm  * *    * *

chorus
|-------------------------------------------------------------------|
|-------------------------------------------------------------------|
|--6-6-6-6-6-6-6-6-4-4-4-4-4-4-4-4-2-2-2-2-2-2-2-2-2-2-2-2-2-2-2-2--| x2
|--6-6-6-6-6-6-6-6-4-4-4-4-4-4-4-4-2-2-2-2-2-2-2-2-2-2-2-2-2-2-2-2--|
|--4-4-4-4-4-4-4-4-2-2-2-2-2-2-2-2-0-0-0-0-0-0-0-0-0-0-0-0-0-0-0-0--|
|-------------------------------------------------------------------|
  "Jet       Black            I Am    Stone Cold"  

|-------------------------------------------------------------------|
|-------------------------------------------------------------------|
|------------------4-4-4-4-4-4-4-4-6-6-6-6-6-6-6-6-2-2-2-2-2-2-2-2--|x2
|--2-2-2-2-2-2-2-2-4-4-4-4-4-4-4-4-6-6-6-6-6-6-6-6-2-2-2-2-2-2-2-2--|
|--2-2-2-2-2-2-2-2-2-2-2-2-2-2-2-2-4-4-4-4-4-4-4-4-0-0-0-0-0-0-0-0--|
|--0-0-0-0-0-0-0-0--------------------------------------------------|
         "Funny    Like              A   Funeral"

bridge            
|-------------------------------------------------------------------|}
|-------------------------------------------------------------------|}
|--4-4-4-4-4-4-4-4-6-6-6-6-6-6-6-6-2-2-2-2-2-2-2-2-9-9-9-9-9-9-9-9--|} 
|--4-4-4-4-4-4-4-4-6-6-6-6-6-6-6-6-2-2-2-2-2-2-2-2-9-9-9-9-9-9-9-9--|}
|--2-2-2-2-2-2-2-2-4-4-4-4-4-4-4-4-0-0-0-0-0-0-0-0-7-7-7-7-7-7-7-7--|}
|-------------------------------------------------------------------|}
                                                                     } x2
|-------------------------------------------------------------------|}
|-------------------------------------------------------------------|}
|------------------2-2-2-2-2-2-2-2-6-6-6-6-6-6-6-6-4-4-4-4-4-4-4-4--|}
|--4-4-4-4-4-4-4-4-2-2-2-2-2-2-2-2-6-6-6-6-6-6-6-6-4-4-4-4-4-4-4-4--|}
|--4-4-4-4-4-4-4-4-0-0-0-0-0-0-0-0-4-4-4-4-4-4-4-4-2-2-2-2-2-2-2-2--|}
|--2-2-2-2-2-2-2-2--------------------------------------------------|}

exibições 388
Acordes para:
    Composição: Jawbreaker

    0 comentários

    mostrar mais comentários

    Conseguiu tocar?

    0 tocaram 0 ainda não

    Grave um vídeo tocando Jet Black e mande pra gente!

    00:00 / 00:00
    outros vídeos desta música
    repetir qualidade Automático
    Outros vídeos desta música
    00:00 / 00:00
    Automático
    OK