Cifra Club

If You See Her Say Hello

Jeff Buckley

Cifra: Principal (violão e guitarra)
Selo Cifra Club: esta cifra foi revisada para atender aos critérios oficiais da nossa Equipe de Qualidade.
tom: Bm
E|E|E|E|E|--------------------------------------------------------------------------------------------------------------|-||||
                                 If You See Her, Say Hello - Jeff Buckley
E|E|E|E|E|--------------------------------------------------------------------------------------------------------------|-||||

Transcribed by: Amilien

This is Jeff's cover of Bob Dylan's 'If You See Her, Say hello' as performed live at Sin-é (from the
album, 'Jeff Buckley Live at Sin-é')


Its played with a slide so you will need one if you don't have one. I play this with the slide on my index 
finger.

This is my first tab so hopefully its legible. I've played it to the song and it sounds pretty much
100% accurate to me.

E|E|E|E|E|--------------------------------------------------------------------------------------------------------------|-||||

Tuning: Open D

e - D
B - A
G - F#
D - D
A - A
E - D

CAPO: 2nd Fret
Tab notation relative to capo


Notation Legend:
 
~~ or ~ : Use slide and move your finger back and forth (or up and down) to rapidly vibrate to create sound
+~ : Smack your slide down on the fret and vibrate
~| : Use your slide but don't vibrate, just rest it on the fret
h : Hammer on
p : Pull off
B : bend
R : release
s : slide (between frets, using your finger slide)
* : strum for as long as necessary (listen to song to know how long) 

You use the slide for most parts, the parts without a ~ above mean you play them with your fingers


E|E|E|E|E|--------------------------------------------------------------------------------------------------------------|-||||
Main Riff:

In the tab I have simplified the main riff so that that tab isn't too confusing or messy. It looks like this:

E|-0s12s5s0---|
B|-0s12s5s0---|
G|-0s12s5s0---|
D|-0s12s5s0---|
A|-0s12s5s0---|
E|-0s12s5s0---|

If you cant work out how to play it exactly, here it is note for note, however its quite hard to portray 
accurately. A / means you strum.
       /   /      /  /  /  / 
E|--12--12s0--0s5--5--5--5s0------------------------|
B|--12--12s0--0s5--5--5--5s0------------------------|
G|--12--12s0--0s5--5--5--5s0------------------------|
D|--12--12s0--0s5--5--5--5s0------------------------|
A|--12--12s0--0s5--5--5--5s0------------------------|
E|--12--12s0--0s5--5--5--5s0------------------------|

E|--------------------------------------------------------------------------------------------------------------|


The tab starts after he says 'This would be much better if we weren't recording, is everyone alright?' -
I haven't worked out the first intro yet.


                                                                                             use finger
                                                                                            to hammer on
       +~              use slide     ~             ~~                                  ~                   ~
E|---12----------------------------5---------5---12--12-------------12--12--12--12---7-------------------5---|
B|---12----------------------------5-------5-----12-----12-------12-----12--12--12---7---------7h9-------5---|
G|---12------12--12--12s13s12s13---5-----5-------12--------12------------------------7----7--------------5---|
D|---12--12------------------------5---5---------12-----------12---------------------7--7---7------------5---|
A|---12----------------------------5-------------12----------------------------------7-------------------5---|
E|---12----------------------------5-------------12----------------------------------7-------------------5---|



                   
   Slide fast between        Upstrum                                   
   4th fret                Use slide but             Same as           aim for the
   and 5th fret            don't vibrate             previous          top 3 strings

      ~~~~~~~~~~~~~             ~|                      ~|       +~    +~    +~    +~        +~    ~
E|-------------------14| B16----12 ^ -----14B16R15B16---12 ^-----12----12----12----12---12---12----5----------|
B|----------------------------12| | -------------------12 |-----12----12----12----12---12---12----5----------|
G|----------------------------12| | -------------------12 |-----12----12----12----12--------12----5------5---|
D|--4s5s4s5s4s7s0-------------12| | -------------------12 |-----12----12----12----12--------12----5---5------|
A|--4s5s4s5s4s7s0-------------12| | -------------------12 |-----12----12----12----12--------12----5----------|
E|--4s5s4s5s4s7s0-------------12| | -------------------12 |-----12----12----12----12--------12----5----------|
                  
                                                                                   Singing starts: Oooo....
 

            Main Riff                                  Main Riff

      ~~    ~~~~~~~~      *        ~     ~      ~|      ~~~~~~~~    *            ~~
E|--12----0s12s5s0------0--------7-----5------3p0-----0s12s5s0----0------------12--|
B|--12----0s12s5s0------0--------7-----5--------------0s12s5s0----0------------12--|
G|--12----0s12s5s0------0--------7-----5--------------0s12s5s0----0------------12--|
D|--12----0s12s5s0------0--------7-----5--------------0s12s5s0----0------------12--|
A|--12----0s12s5s0------0--------7-----5--------------0s12s5s0----0---0h1h2p0--12--|
E|--12----0s12s5s0------0--------7-----5--------------0s12s5s0----0------------12--|
                                   Ohhh...                                       If........



Whilst vibrating on 12 pick any strings you like randomly to fill in the time 



        ~           ~~
E|----5-----------12-------------------------------------------------------------------------------|
B|----5-----------12-------------------------------------------------------------------------------|
G|----5-----------12-------------------------------------------------------------------------------|
D|----5-----------12-------------------------------------------------------------------------------|
A|----5-----------12-------------------------------------------------------------------------------|
E|----5-----------12-------------------------------------------------------------------------------|
    you see her    say hello...
Outros vídeos desta música
    26 exibições
      • ½ Tom
      • Am
      • Bbm
      • Bm
      • Cm
      • C#m
      • Dm
      • Ebm
      • Em
      • Fm
      • F#m
      • Gm
      • G#m
    • Adicionar à lista

    Afinação da cifra

    Afinador online

      0 comentários

      Ver todos os comentários

      Entre para o Cifra Club PRO

      Tenha acesso a benefícios exclusivos no App e no Site

      • Chega de anúncios

      • Badges exclusivas

      • Mais recursos no app do Afinador

      • Atendimento Prioritário

      • Aumente seu limite de lista

      • Ajude a produzir mais conteúdo

      Cifra Club Pro

      Aproveite o Cifra Club com benefícios exclusivos e sem anúncios
      Cifra Club Pro
      Aproveite o Cifra Club com benefícios exclusivos e sem anúncios
      OK