Cifra Club

Mama Youve Been On My Mind

Jeff Buckley

Cifra: Principal (violão e guitarra)
Selo Cifra Club: esta cifra foi revisada para atender aos critérios oficiais da nossa Equipe de Qualidade.
tom: Am
   C   E7  Am  D7/F#  E  Fmaj7    C/G
E|-0-|-0-|-0-|-2----|-0-|-0----0-|-0--|
B|-1-|-0-|-1-|-1----|-0-|-1----1-|-1--|
G|-0-|-1-|-2-|-2----|-1-|-2----2-|-0--|
D|-2-|-0-|-2-|-0----|-2-|-2-or-3-|-2--|
A|-3-|-2-|-0-|-0----|-2-|-0----0-|-3--|
E|-0-|-0-|-0-|-1----|-0-|-1----1-|-3--|

[Intro]

E|-----------------------------------1----(2)-----------------------------------------|
B|-----------1---1------1---1--------1-----1---5--------------------------------------|
G|-0---------0---0------0---0--------2-----2---5------5---5---7/9/7--7/9/7--5---------|
D|-2(2)------2---2------2---2--------3-----1---5--5-7---7---7-----------------5/7-5---|
A|-3-3-----0-3-0-3----0-3-0-3--0h3---3-----x---3------3---3---5/7/5--5/7/5--3---------|
E|-------3----------3---------3----1-----2---3----3-5---5---5-----------------3/5-3---|

E|---1---2----------0--------2------3----3--------|
B|---1---1--5--3----1--------1------3----3--------|
G|---2---2--5--4----2--------2------0----0---0----|
D|---3---1--5--5----2----2-0-0------0----0h2-3----|
A|---3---x--3--5--0-----------------2----2--------|
E|-1---2----3--3------------------3---------------|

[Verse]

C                                      E7
Perhaps it is the color of the sun cut flat
    Am            D7/F#       
And coverin' the crossroads I'm standing at
   C                    E     Am            Fmaj7
Or maybe it's the weather or something like that
C                       G     C/G
oh but mama you've been on my mind

C                                                      E7
I don't mean trouble please don't put me down don't get upset
         Am         D7/F#
I am not pleading or saying that I can't forget you
C                         E      Am           Fmaj7
I do not pace the floor bowed down and bent but yet
C                   G       C/G
Oh mama you've been on my mind

C                                              
Even though my eyes are hazy and my thoughts they might be narrow
             E7                Am D7/F#  
Where you've been don't bother me or bring me down with sorrow
C                               E      Am         Fmaj7
I don't even mind who you'll be waking with tomorrow
C                    G        C/G
But mama you've been on my mind

C
I am not askin' you to say words like yes or no
E7                Am D7/F#                              
Please understand me I have no place I'm callin' you to go
C                             E      Am                    Fmaj7
I'm just whispering to myself so I can pretend that I don't know
C                    G       C/G
Oh mama you've been on my mind

[Bridge]

C       E7
Am      D7/F#
C E Am  Fmaj7
C   G   C/G

[Verse]

C
When you wake up in the mornin' baby look inside your mirror
E7                               Am                  D7/F#
You know I won't be next to you you know I won't be near
C                                      E         Am       
I'd just be curious to know if you can see yourself as clear
Fmaj7 C                  G          C/G
As someone who has had you on his mind

[outro]        

E|----------0-|
B|-------1--1-|
G|-----0----0-|
D|---2------2-|
A|-3--------3-|
E|------------|



************************************

| x   Dead note
| h   Hammer-on
| /   Slide
Outros vídeos desta música
    135 exibições
      • ½ Tom
      • Am
      • Bbm
      • Bm
      • Cm
      • C#m
      • Dm
      • Ebm
      • Em
      • Fm
      • F#m
      • Gm
      • G#m
    • Adicionar à lista

    Afinação da cifra

    Afinador online

      0 comentários

      Ver todos os comentários

      Entre para o Cifra Club PRO

      Tenha acesso a benefícios exclusivos no App e no Site

      • Chega de anúncios

      • Mais recursos no app do Afinador

      • Atendimento Prioritário

      • Aumente seu limite de lista

      • Ajude a produzir mais conteúdo

      Cifra Club Pro

      Aproveite o Cifra Club com benefícios exclusivos e sem anúncios
      Cifra Club Pro
      Aproveite o Cifra Club com benefícios exclusivos e sem anúncios
      OK