Cifra Club

Sky Blue Skin

Jeff Buckley

Cifra: Principal (violão e guitarra)
Selo Cifra Club: esta cifra foi revisada para atender aos critérios oficiais da nossa Equipe de Qualidade.
tom: G
  [Intro]                              [Riff 1]
E|------------------------0---------------------------------------------------|
B|------------------------0----------------------------------0----------------|
G|------------------------0-----------------0---------------------------------|
D|------------------------0---------------0-------------0---------------------|
A|------------------------0-------------3-----------------3-------------------|
E|--0-----------xx--------0-----------3--------------5------------------------|

                                                      x4
E|----------------------------------------------------x-----------------------|
B|---------3------------------------------------------5-----------------------|
G|-------0-----------2--------------------------------5-----------------------|
D|-----0-----------2----------------------------------5-----------------------|
A|---0-----------1------------------------------------7-----------------------|
E|----------------------------------------------------x-----------------------|


Same as above but you kind of fingerpick the riffs

E|--0-0-0-0-0-----------------------------------------------------------------|
B|--3-3-3-3-0---------------------0----------3--------------------------------|
G|--0-0-0-0-0-----------0------------------0----------2-----------------------|
D|--3-3-3-0-0---------0-------0----------0----------2-------------------------|
A|--0-0-0-0-0-------3-----------3------0----------1---------------------------|
E|--0-0-3-0-0-----3--------5--------------------------------------------------|

[Riff 2] 

E|----------------------------------------------------------------------------|
B|----0-----------------------------------------------------------------------|
G|----------0--------0--------------------0----0--------0---------------------|
D|---------------0---------------------------------0-------0-----0------------|
A|----------------------------------------------------------------------------|
E|----3-----5----7---8-----7-----3--------3----5---7----8----7--7---5---------|

                                            finger pick                     
E|---------------0-------------------------------------0----------------------|
B|-------------------8------0-------5---------------------0-------------------|
G|----------0------------0-----0----------------0-------------------------5---|
D|----3--------------------------------------7-----7--------7-7---------5-----|
A|---------------------------------------------5-----5----5-----------5-------|
E|----3-----5----7---8------7--------------6--------------------6---5---------|


            
E|----5------------------0-0-----0-0~---0-------------------------------------|
B|---------7-------------0-0-----0-0~---0-------------------------------------|
G|----------5------------0-0-----0-0~---0-------------------------------------|
D|--5---5----5-----------5/12----2/11~--12------------------------------------|
A|-----------------------0-0-----0-0~---0-------------------------------------|
E|-----------------------5/12----2/11~--12------------------------------------|



Thats the intro right before lyrics, now its the same as part A


[Verse]
                      Take the pain.  ..                         We learn...
E|----------------------------------------------------------------------------|
B|----0-----------------------------------------------------------------------|
G|----------0--------0--------------------0----0--------0---------------------|
D|---------------0---------------------------------0-------0-----0------------|
A|----------------------------------------------------------------------------|
E|----3-----5----7---8-----7-----3--------3----5---7----8----7--7---5---------|
                           I   All     Ready                   sidewalk...
E|---------------0-------------------------------------0----------------------|
B|-------------------8------0-------5---------------------0-------------------|
G|----------0------------0-----0----------------0-------------------------5---|
D|----3--------------------------------------7-----7--------7-7---------5-----|
A|---------------------------------------------5-----5----5-----------5-------|
E|----3-----5----7---8------7--------------6--------------------6---5---------|

           kissing in hereafter
E|----5------------------0-0-----0-0~---0-------------------------------------|
B|---------7-------------0-0-----0-0~---0-------------------------------------|
G|----------5------------0-0-----0-0~---0-------------------------------------|
D|--5---5----5-----------5/12----2/11~--12------------------------------------|
A|-----------------------0-0-----0-0~---0-------------------------------------|
E|-----------------------5/12----2/11~--12------------------------------------|


Notice how he sings on the last note then baseline back to the start. 

[Interlude]
                   kind of fingerpick with the other opens strings
E|----------------------7-----------------------------------------------------|
B|----0---------------8---8-----------8------0--------------------------------|
G|----------0---------------0-----0--------0---0----0---0----------0----------|
D|---------------7------------------0------------0-----------0----------------|
A|----------------------------------------------------------------------------|
E|----3-----5----7----8---------7--------3----------3---5----7-----8------7---|

                                            Improve fingerpicking
E|-------------------------8-------7------7-----------------------------------|
B|----------0-------------------8---------------------------------------------|
G|----------------0----------0--------0-------5-------------------------------|
D|----------------------------0--------0------5-------------------------------|
A|-----------------------------0--------0-----5-------------------------------|
E|----5-----3-----5----7---8-------7----------5-------------------------------|


        Strum
          young life                             learn to think..
E|----------------------------------------------------------------------------|
B|----------------------------------------------------------------------------|
G|-------/7-------/5-------/7---------------/5--------------------------------|
D|--------7-------/5-------/7---------------/5--------------------------------|
A|--------7-------/5-------/7---------------/5--------------------------------|
E|-------/7-------/5-------/7---------------/5--------------------------------|

                    make it hard..                        And the man..
E|----------------------------------------------------------------------------|
B|----------------------------------------------------------------------------|
G|-----------------/7-------------/5---------------------/7-----------/5------|
D|------------------7--------------5----------------------7------------5------|
A|------------------7--------------5----------------------7------------5------|
E|-----------------/7-------------/5---------------------/7-----------/5------|

   what hes after....
E|----------------------------------------------------------------------------|
B|----------------------------------------------------------------------------|
G|-----------------3/12------------2/11-------12------------------------------|
D|----------------------------------------------------------------------------|
A|----------------------------------------------------------------------------|
E|-----------------3/12------------2/11-------12------------------------------|


[Chorus]
 
         chances..   wouldn't..   recognize..        strum x4
E|-------0------------0---------------0-------------------0-------------------|
B|-------0------------0---------------0-------------------5-------------------|
G|-------0------------0---------------0-------------------5-------------------|
D|-------0------------0---------------0-------------------5-------------------|
A|-------3------------5---------------8-------------------7-------------------|
E|-------3------------5---------------7-------------------0-------------------|
 2   chances are.. (you finger pick these, just as the beggining)
E|---0-----------0----------------0---------------0-----------0---------------|
B|---3-----------0----------------0---------------3-----------5---------------|
G|---0-----------0----------------4---------------0-----------5---------------|
D|---3-----------0----------------0---------------0-----------5---------------|
A|---0-----------3----------------3---------------0-----------0---------------|
E|---0-----------3----------------5---------------0-----------0---------------|

     chances are..
E|---0-----------0----------------0---------------0------------0--------------|
B|---3-----------0----------------0---------------3------------5--------------|
G|---0-----------0----------------4---------------0------------5--------------|
D|---3-----------0----------------0---------------0------------5--------------|
A|---0-----------3----------------3---------------0------------0--------------|
E|---0-----------3----------------5---------------0------------0--------------|

      makes up any excuse....
E|---0-----------0----------------0---------------0------------0--------------|
B|---3-----------0----------------0---------------3------------5--------------|
G|---0-----------0----------------4---------------0------------5--------------|
D|---3-----------0----------------0---------------0------------5--------------|
A|---0-----------3----------------3---------------0------------0--------------|
E|---0-----------3----------------5---------------0------------0--------------|

     the knife wanders...
E|---0-----------0----------------0---------------0------------0--------------|
B|---3-----------0----------------0---------------3------------5--------------|
G|---0-----------0----------------4---------------0------------5--------------|
D|---3-----------0----------------0---------------0------------5--------------|
A|---0-----------3----------------3---------------0------------0--------------|
E|---0-----------3----------------5---------------0------------0--------------|

     it cuts between us as we                      grow
E|---0-----------0----------------0-------0--------0--------------------------|
B|---3-----------0----------------0-------3--------0--------------------------|
G|---0-----------0----------------4-------0--------2--------------------------|
D|---3-----------0----------------0-------0--------2--------------------------|
A|---0-----------3----------------3-------0--------1--------------------------|
E|---0-----------3----------------5-------0--------0--------------------------|

E|----------------0--------------0---------------------------------5----------|
B|-----0----------------8-------------------------------5-------7----7--------|
G|------------0-------------0---------0---0----------5----5------5----5-------|
D|--------------------------------------0-------7-----7----7------5----5------|
A|------------------------------------------------5----5----------------------|
E|-----3------5---7-----8--------7------------6----------------5--------------|

E|--0-0-----0-0~---0----------------------------------------------------------|
B|--0-0-----0-0~---0----------------------------------------------------------|
G|--0-0-----0-0~---0----------------------------------------------------------|
D|--5/12----2/11~--12---------------------------------------------------------|
A|--0-0-----0-0~---0----------------------------------------------------------|
E|--5/12----2/11~--12---------------------------------------------------------|
                                                                        thats it

************************************

| x  Dead note
| ~  Vibrato
| /  Slide up
|    
| #  
| chances are.. (you finger pick these, just as the beggining) 
Outros vídeos desta música
    32 exibições
      • ½ Tom
      • A
      • Bb
      • B
      • C
      • Db
      • D
      • Eb
      • E
      • F
      • F#
      • G
      • Ab
    • Adicionar à lista

    Afinação da cifra

    Afinador online

      0 comentários

      Ver todos os comentários

      Entre para o Cifra Club PRO

      Tenha acesso a benefícios exclusivos no App e no Site

      • Chega de anúncios

      • Mais recursos no app do Afinador

      • Atendimento Prioritário

      • Aumente seu limite de lista

      • Ajude a produzir mais conteúdo

      Cifra Club Pro

      Aproveite o Cifra Club com benefícios exclusivos e sem anúncios
      Cifra Club Pro
      Aproveite o Cifra Club com benefícios exclusivos e sem anúncios
      OK