Cifra Club

Ye Jo Halka Halka Suroor Hai

Jeff Buckley

Cifra: Principal (violão e guitarra)
Selo Cifra Club: esta cifra foi revisada para atender aos critérios oficiais da nossa Equipe de Qualidade.
tom: Bm
E|E|E|E|E|--------------------------------------------------------------------------------------------------------------|||||
                           Ye Jo Halka Halka Suroor Hai - Jeff Buckley
E|E|E|E|E|--------------------------------------------------------------------------------------------------------------|||||
Tabbed by: Amilien

This is Jeff Buckleys cover of Nusrat Fateh Ali Khan's 'Ye Jo Halka Halka Suroor Hai', performed at Sin-é, from
the album, 'Jeff Buckley Live at Sin-é'

Slide between every note - never take your fingers off the fret board (apart for when playing the open strings)

For the parts where notes are close together in groups of 3's you have to strum for a while, 
listen to the song to learn the rhythm.


E|E|E|E|E|--------------------------------------------------------------------------------------------------------------|||||
Tuning: Open D
CAPO: 2nd Fret

e - D
B - A
G - F#
D - D
A - A
E - D
E|E|E|E|E|--------------------------------------------------------------------------------------------------------------|||||
IMPORTANT: For every chord you strum all the the strings

So: 

E|--------|
B|---5----|
G|--------|
D|--------|
A|---5----|
E|--------|

Should be:

E|---0----|
B|---5----|
G|---0----|
D|---0----|
A|---5----|
E|---0----|

I've written it this way to make the tab less messy and easier to read

E|E|E|E|E|--------------------------------------------------------------------------------------------------------------|||||

E|--5-4-7-999-5s4s5-555-5s4s5-7-4----------------0-2s4s2p0-------------2s444s3s444s3s444s2p0----------|
B|--------------------------------0-2-0-2-0-2p0-------------0-0-2-000-------------------------0h2p0---|
G|----------------------------------------------------------------------------------------------------|
D|--5-4-7-999-5s4s5-555-5s4s5-7-4----------------0-2s4s2p0-------------2s444s3s444s3s444s2p0----------|
A|--------------------------------0-2-0-2-0-2p0-------------0-0-2-000-------------------------0h2p0---|
E|----------------------------------------------------------------------------------------------------|

E|--000-----------------------------------------------------------------------------------|
B|--000------5-5-5-5-4-7-5-4-2-4-2-0-0-4-555-8s999-8s999-8s999s101010--141414-------------|
G|--000-----------------------------------------------------------------------------------|
D|--000-----------------------------------------------------------------------------------|
A|--000------5-5-5-5-4-7-5-4-2-4-2-0-0-4-555-8s999-8s999-8s999s101010--141414-------------|
E|--000-----------------------------------------------------------------------------------|

I'll do just a bit...                                      This is 10 not
                                                             1 and 0



E|---------------------------------------------------------------------------------------------------------|
B|-14s17-12s14-10s12-9s10-7s9-5s7s5--5s4s5s3s4s2s3s2p0-2-0-555-0-4-4-555-0-4-4-555-0-4-4-555-444-222-000---|
G|---------------------------------------------------------------------------------------------------------|
D|---------------------------------------------------------------------------------------------------------|
A|-14s17-12s14-10s12-9s10-7s9-5s7s5--5s4s5s3s4s2s3s2p0-2-0-555-0-4-4-555-0-4-4-555-0-4-4-555-444-222-000---|
E|---------------------------------------------------------------------------------------------------------|

                                       Do this really fast                                Song starts: Ahhhh
                                         with one strum
                                      Accuracy doesnt matter
                                     only strum the first bit
                                        on the 5th fret
Outros vídeos desta música
    9 exibições
      • ½ Tom
      • Am
      • Bbm
      • Bm
      • Cm
      • C#m
      • Dm
      • Ebm
      • Em
      • Fm
      • F#m
      • Gm
      • G#m
    • Adicionar à lista

    Afinação da cifra

    Afinador online

      0 comentários

      Ver todos os comentários

      Entre para o Cifra Club PRO

      Tenha acesso a benefícios exclusivos no App e no Site

      • Chega de anúncios

      • Mais recursos no app do Afinador

      • Atendimento Prioritário

      • Aumente seu limite de lista

      • Ajude a produzir mais conteúdo

      Cifra Club Pro

      Aproveite o Cifra Club com benefícios exclusivos e sem anúncios
      Cifra Club Pro
      Aproveite o Cifra Club com benefícios exclusivos e sem anúncios
      OK