Cifra Club

Da Boca Pra Fora / Minha Estrela Perdida (Pot Pourri)

Jefferson Moraes

Cifra: Principal (violão e guitarra)
Selo Cifra Club: esta cifra foi revisada para atender aos critérios oficiais da nossa Equipe de Qualidade.
tom: F (forma dos acordes no tom de E) Capotraste na 1ª casa
[Intro] E  G#m  A9  B9  E
        G#m  A9  B9  C#m  B9

[Tab - Solo Intro]

Parte 1 de 3
E|-2/4-2--------------4-2-----------------------------|
B|-4/5-4-5-4-5--2-5-2-----4-2-------------------------|
G|-------6-4-6----------------4~----------------------|
D|----------------------------------------------------|
A|----------------------------------------------------|
E|----------------------------------------------------|

Parte 2 de 3
E|----------------------------------------------------|
B|-4/5-4~-2-0-2-0-2-----------------------------------|
G|-4/6-4~-2-1-2-1-2-----------------------------------|
D|----------------------------------------------------|
A|----------------------------------------------------|
E|----------------------------------------------------|

Parte 3 de 3
E|----------------------------------------------------|
B|-----------------------------2----------------------|
G|-------1-------------------1---4~-------------------|
D|---2-4---4-2-1-------1-2-4--------------------------|
A|-4-------------4-4-4--------------------------------|
E|----------------------------------------------------|

     E                     C#m
Pode tudo se perder, posso até

Enlouquecer
     A9      F#m7               
Coração, explodir dentro do
B9   B7
Peito

[Segunda Parte]

       E                     C#m
E não vai ter outra vez, esgotou-se

A sensatez
    A9      B9                E    E4  E  G#
É adeus, acabou não tem mais jeito

[Pré-Refrão]

C#m                     G#m7
Pode o mundo cair sobre mim
A9                  E             
E a minha vida virar tempestade
G#

C#m                             G#m
Praga de amor qualquer coisa assim
A9       B9          
Você pra mim não vai ser nen
    E   B9
Saudade

[Refrão]

            E            B/D#      
Da boca pra fora a gente diz tudo
     C#m
Que quer
       G#m         A9           
Só não diz a uma mulher, que ela
F#m        B9 
É caso passado
            E       B/D#        C#m
Da boca pra fora coração sabe mentir
       G#m         A9           
Só não aprendeu a abrir mão de
   B9        E   C9
Você do meu lado

[Refrão]

            F            C/E      
Da boca pra fora a gente diz tudo
     Dm
Que quer
       Am           Bb9           
Só não diz a uma mulher, que ela
Gm        C9 
É caso passado
             F       C/E         Dm
Da boca pra fora coração sabe mentir
       Am          Bb9           
Só não aprendeu a abrir mão de
  C9 Bb9 F  Bb9
Você do meu lado

[Ponte]

[Tab - Ponte]

E|----------------------------------------------------|
B|-3-3-3-1--------------------------------------------|
G|---------3-2~---------------------------------------|
D|----------------------------------------------------|
A|----------------------------------------------------|
E|----------------------------------------------------|

[Solo] A9  D  Bm
       G  Em  A9         

[Tab - Solo Intro]

Parte 1 de 2
E|----------------------------------------------------|
B|-5/7-5-5-----------5/7-5-5--------------------------|
G|---------7-7-6-6/7---------7-7-6-6/7----------------|
D|----------------------------------------------------|
A|----------------------------------------------------|
E|----------------------------------------------------|

Parte 2 de 2
E|----------------------------------------------------|
B|-5-7-7/8-7-7-5-5-3-3-3/5-3~-2h3p2~-3-5-5/7~---------|
G|----------------------------------------------------|
D|----------------------------------------------------|
A|----------------------------------------------------|
E|----------------------------------------------------|

[Primeira Parte]

  D                  F#m7
Você vai rir, quando eu pedir
    Em            A
Pra me fazer mais um favor
     D            F#m7
Deixa eu sonhar, acreditar
     Em             A
Mais uma vez, num grande amor

[Pré-Refrão]

D                          A/C#  
Mente que eu finjo que acredito no
          Bm
Seu coração
              F#m              G
Conta uma mentira prá minha paixão
               D/F#            Em 
Diz que ainda sou o que você mais
     A
Quis

D                         A/C#   
Mente que eu sou um sonho lindo
           Bm
Que você sonhou
              F#m              G
Que a vida inteira você me esperou
              D/F#              Em
Basta seu sorriso pra me ver feliz
A7

[Refrão]

       D
Só um beijo e nada mais
  A/C#  Bm/E
Pra deixar você em paz
Bm/A    Em          G          A
E encontrar a minha estrela perdida

       D
Só um sonho e nada mais
A/C#   Bm
Depois disso tanto faz
Bm/A Em             G          A
Uma  noite pra esquecer de uma vida
               G         
Minha estrela perdida

[Final] G  D

[Tab - Final]

E|--------2~-2-3-2~--------2~---2-3-2~-0h2~-----------|
B|-2/3--5-----------2/3--5----5-----------------------|
G|----------------------------------------------------|
D|----------------------------------------------------|
A|----------------------------------------------------|
E|----------------------------------------------------|

Minha estrela perdida
Outros vídeos desta música
    11.603 exibições
      • ½ Tom
      • A
      • Bb
      • B
      • C
      • Db
      • D
      • Eb
      • E
      • F
      • F#
      • G
      • Ab
    • Adicionar à lista

    Afinação da cifra

    Afinador online

      0 comentários

      Ver todos os comentários

      Entre para o Cifra Club PRO

      Tenha acesso a benefícios exclusivos no App e no Site

      • Chega de anúncios

      • Badges exclusivas

      • Mais recursos no app do Afinador

      • Atendimento Prioritário

      • Aumente seu limite de lista

      • Ajude a produzir mais conteúdo

      Cifra Club Pro

      Aproveite o Cifra Club com benefícios exclusivos e sem anúncios
      Cifra Club Pro
      Aproveite o Cifra Club com benefícios exclusivos e sem anúncios
      OK