Cifra Club

555

Jimmy Eat World

Cifra: Principal (violão e guitarra)
tom: C
[Intro]

E|------------------------------------------------------------------|
B|-1-3-5-0-1-----1-3-5-0-1------------------------------------------|
G|------------------------------------------------------------------|
D|------------------------------------------------------------------|
A|------------------------------------------------------------------|
E|------------------------------------------------------------------|

C                      G 
I keep my focus on the simple things
C                         G 
Trying to find some peace along the way
C                        G 
Wish I knew how long I'm supposed to wait
C                   G 
Holding on but just barely

                C                      G 
Got the feeling I've been talking to a dead, dead line
C                          G 
There's always a reason to let it change
         C                                G 
Is there anyone there listening while you cry, cry, cry?
C                      G 
There's always a reason for the pain 
G             D               C
I'm doing the things that I'm told every day, every day, every day

E|-3----------------------------------------------------------------|
B|---1-0------------------------------------------------------------|
G|------------------------------------------------------------------|
D|------------------------------------------------------------------|
A|------------------------------------------------------------------|
E|------------------------------------------------------------------|

G                D             C
Then why does it feel like I'm moving in place, in place, in place?

E|-3----------------------------------------------------------------|
B|---1-0------------------------------------------------------------|
G|------------------------------------------------------------------|
D|------------------------------------------------------------------|
A|------------------------------------------------------------------|
E|------------------------------------------------------------------|

C                     G
Never had anything to prove
C                G
But never was anyone like you
C                               G
All you fought through, all you had to face
C                  G
Made you stronger, unafraid

                C                      G 
Got the feeling I've been talking to a dead, dead line
C                          G 
There's always a reason to let it change
         C                                G 
Is there anyone there listening while you cry, cry, cry?
C                      G 
There's always a reason for the pain

G             D               C
I'm doing the things that I'm told every day, every day, every day

E|-3----------------------------------------------------------------|
B|---1-0------------------------------------------------------------|
G|------------------------------------------------------------------|
D|------------------------------------------------------------------|
A|------------------------------------------------------------------|
E|------------------------------------------------------------------|
G                D             C
Then why does it feel like I'm moving in place, in place, in place?

E|-3----------------------------------------------------------------|
B|---1-0------------------------------------------------------------|
G|------------------------------------------------------------------|
D|------------------------------------------------------------------|
A|------------------------------------------------------------------|
E|------------------------------------------------------------------|

G          D                C
I gotta believe that you're there when I sing, when I sing, when I sing

E|-3----------------------------------------------------------------|
B|---1-0------------------------------------------------------------|
G|------------------------------------------------------------------|
D|------------------------------------------------------------------|
A|------------------------------------------------------------------|
E|------------------------------------------------------------------|

G                    D         C 
'Cause if you're not real, I'm losing my head, in my head, in my head

E|-3----------------------------------------------------------------|
B|---1-0------------------------------------------------------------|
G|------------------------------------------------------------------|
D|------------------------------------------------------------------|
A|------------------------------------------------------------------|
E|------------------------------------------------------------------|
                C                      G 
Got the feeling I've been talking to a dead, dead line
C                          G 
There's always a reason to let it change
         C                                G 
Is there anyone there listening while you cry, cry, cry?
C                      G 
There's always a reason for the pain

G             D               C
I'm doing the things that I'm told every day, every day, every day

E|-3----------------------------------------------------------------|
B|---1-0------------------------------------------------------------|
G|------------------------------------------------------------------|
D|------------------------------------------------------------------|
A|------------------------------------------------------------------|
E|------------------------------------------------------------------|

G                D             C
Then why does it feel like I'm moving in place, in place, in place?

E|-3----------------------------------------------------------------|
B|---1-0------------------------------------------------------------|
G|------------------------------------------------------------------|
D|------------------------------------------------------------------|
A|------------------------------------------------------------------|
E|------------------------------------------------------------------|

G          D                C
I gotta believe that you're there when I sing, when I sing, when I sing

E|-3----------------------------------------------------------------|
B|---1-0------------------------------------------------------------|
G|------------------------------------------------------------------|
D|------------------------------------------------------------------|
A|------------------------------------------------------------------|
E|------------------------------------------------------------------|

G                    D         C 
'Cause if you're not real, I'm losing my head, in my head, in my head

E|-3----------------------------------------------------------------|
B|---1-0------------------------------------------------------------|
G|------------------------------------------------------------------|
D|------------------------------------------------------------------|
A|------------------------------------------------------------------|
E|------------------------------------------------------------------|

C                      G
I keep my focus on the simple things
C                         G
Trying to find some peace along the way
Composição de Jim Adkins
Colaboração e revisão:
  • Pedro Novo
62 exibições
    • ½ Tom
    • A
    • Bb
    • B
    • C
    • Db
    • D
    • Eb
    • E
    • F
    • F#
    • G
    • Ab
  • Adicionar à lista

    0 comentários

    Ver todos os comentários
    00:00 / 00:00
    Outros vídeos desta música
    Repetir Qualidade Automático
    Outros vídeos desta música
    00:00 / 00:00
    Automático

    Cifra Club Pro

    Aproveite o Cifra Club com benefícios exclusivos e sem anúncios
    Cifra Club Pro
    Aproveite o Cifra Club com benefícios exclusivos e sem anúncios
    OK