Cifra Club

Boate Azul

João Mineiro e Marciano

Cifra: Principal
exibições 859.287
Tom: C
Intro: Dm G C F Dm E Am A7
        Dm G C F Dm E Am
E|------0--1--0--1--0--1---------------0-----0-----0---------|
B|---3--------------------1--0---1--3-----3-----3-----0------|
G|-------------------------------------------------------2---|
D|-----------------------------------------------------------|
A|-----------------------------------------------------------|
E|-----------------------------------------------------------|

E|---------------------------------------0--0h3p0------------|
B|---0--1--2--1--2--1--2-----------0--1----------------------|
G|------------------------2--1--2----------------------------|
D|-----------------------------------------------------------|
A|-----------------------------------------------------------|
E|-----------------------------------------------------------|

E|------0--1--0--1--0--1---------------0-----0-----0---------|
B|---3--------------------1--0---1--3-----3-----3-----0------|
G|-------------------------------------------------------2---|
D|-----------------------------------------------------------|
A|-----------------------------------------------------------|
E|-----------------------------------------------------------|
                                           Am
E|-----------------------------------------0-----------------|
B|---0--1--2--1--2--1--2-----------0--1----1-----------------|
G|------------------------2--1--2----------2-----------------|
D|-----------------------------------------2-----------------|
A|-----------------------------------------0-----------------|
E|-----------------------------------------------------------|

Am                                        G
Doente de amor procurei remédio na vida noturna.
               F                              E7   A7
Como a flor da noite em uma boate aqui na zona sul.
          Dm                               Am
A dor do amor é com outro amor que a gente cura.
            E7                             Am     A7
Vim curar a dor deste mal de amor na boate azul.
           Dm                                     Am
E quando a noite vai se agonizando no clarão da aurora.
       E7                                 Am      A7
Os integrantes da vida noturna se foram dormir.
            Dm                                   Am
E a dama da noite que estava comigo também foi embora.
               F                E7            A
Fecharam-se as portas sozinho de novo tive que sair.

            E                   D              A
Sair de que jeito, se nem sei o rumo para onde vou.
                                E             D                A
Muito vagamente me lembro que estou. Em uma boate aqui na zona sul
          E             D                  A
Eu bebi demais e não consigo me lembrar se quer.
                          E               D     E        A
Qual era o nome daquela mulher, a flor da noite da boate azul.

( Dm  G  C  F  Dm  E7  Am  A7 )

           Dm                                     Am
E quando a noite vai se agonizando no clarão da aurora.
       E7                                 Am      A7
Os integrantes da vida noturna se foram dormir.
            Dm                                   Am
E a dama da noite que estava comigo também foi embora.
               F                E7            A
Fecharam-se as portas sozinho de novo tive que sair.

            E                   D              A
Sair de que jeito, se nem sei o rumo para onde vou.
                                E             D                A
Muito vagamente me lembro que estou. Em uma boate aqui na zona sul
          E             D                  A
Eu bebi demais e não consigo me lembrar se quer.
                          E               D     E        A
Qual era o nome daquela mulher, a flor da noite da boate azul.
Acordes para:
    Colaboração e revisão:
    • Ewerton Santos
    • Daniel Pena
    • Lailson Souza

    0 comentários

      mostrar mais comentários

      Conseguiu tocar?

      39tocaram0ainda não

      Grave um vídeo tocando Boate Azul e mande pra gente!

      00:00 / 00:00
      outros vídeos desta música
      repetirqualidadeautomática
      Outro vídeos desta música
        00:00 / 00:00
        automática
        OK