Cifra Club

Telefone Mudo

Trio Parada Dura

Cifra: Principal
exibições 848.298
Tom: G
[Intro] C  G   D  C

          C                          G               D           C          G
E|---------0-2/3-3-3-3-3-2-3-3-3-3-2---3---3---------0-2-2-2-2-2-0-0-0-0-0/2-3-|
B|---------0-3/5-5-5-5-5-3-5-5-5-5-3-----------------0-3-3-3-3-3-1-1-1-1-1/3-3-|
G|-----------------------------------------------------------------------------|
D|-----------------------------------------------------------------------------|
A|---0-2---------------------------------------------------------------------2-|
E|-3----------------------------------3--3--3--3/2-0-------------------------3-|

          C                          G               D           C          G
E|---------0-2/3-3-3-3-2-3-3-3-5-3-2---3---3---------0-2-2-2-2-2-0-0-0-0-0/2-3-|
B|---------0-3/5-5-5-5-3-5-5-5-7-5-3-----------------0-3-3-3-3-3-1-1-1-1-1/3-3-|
G|-----------------------------------------------------------------------------|
D|-----------------------------------------------------------------------------|
A|---0-2---------------------------------------------------------------------2-|
E|-3----------------------------------3--3--3--3/2-0-------------------------3-|

     C                                  G
Eu quero que risque o meu nome da sua agenda
    D              C                 G
Esqueça o meu telefone não me ligue mais              
     C                              G
Porque já estou cansado de ser o remédio
                 D                   C                  G
Pra curar o seu tédio, quando seus amores não lhe satisfaz

    D                           C                 G
Cansei de ser o seu palhaço, fazer o que sempre quis
                 D                      C             G
Cansei de curar sua fossa, quando você não se sentia feliz

    D                     C               G
Por isso é que decidi, o meu telefone cortar
                        D               C        D       G
Você vai discar varias vezes, telefone mudo não pode chamar

[Final]

    G
E|----------3----------------------|
B|---------3-----------------------|
G|-------0-------------------------|
D|---------------------------------|
A|---0-2---------------------------|
E|-3-------------------------------|

0 comentários

    mostrar mais comentários

    Conseguiu tocar?

    53tocaram2ainda não

    Grave um vídeo tocando Telefone Mudo e mande pra gente!

    00:00 / 00:00
    outros vídeos desta música
    repetirqualidadeautomática
    Outro vídeos desta música
      00:00 / 00:00
      automática
      OK