Cifra Club

Castelo de Amor

Trio Parada Dura

Cifra: Principal (violão e guitarra)
Selo Cifra Club: esta cifra foi revisada para atender aos critérios oficiais da nossa Equipe de Qualidade.
tom: D
[Intro] D  A7  D  D7
        G  A7  D

[Tab - Intro]

E|------------------------------------------------------|
B|--0-2-3-3-3--5-5-7--7-5-5-5--7-8-10-7-----------------|
G|------4-4-4--6-6-7--7-6-6-6--7-9-11-7-----------------|
D|------------------------------------------------------|
A|------------------------------------------------------|
E|------------------------------------------------------|

E|---------------------------------------------5-3-2----|
B|--7-5-5-5-3-3-0----0-0-3-0-2-----------------7-5-3----|
G|--7-5-5-5-4-4-0----0-0-4-0-2-----2h4p2-1-2------------|
D|------------------------------------------------------|
A|------------------------------------------------------|
E|------------------------------------------------------|

[Primeira Parte]

                             A7              D
Num lugar longe, bem longe, lá no alto da colina
D7                 G    A7                 D
Onde vejo a imensidão e as belezas que fascinam
D7              G      D     A7         D
Ali eu quero morar juntinho com minha flor
                 E7    A7                D
Ali quero construir o nosso castelo de amor

[Solo] A7  D  A7
       D  D7  G  A7  D

 D                         A7                 D
Quando longe, muito longe surge o sol no horizonte
 D7              G      A7               D
Fazendo raja no céu, fazendo clarão nos montes
D7                G        D          A7         D
Aquecendo toda a terra, bebendo o orvalho das flores
                     E7      A7                D
Quero brindar com carinho o nosso castelo de amor

[Solo] A7  D  A7  D
       D7  G  A7  D 

                            A7              D
Quando longe, muito longe, formar nuvem no céu
D7              G     A7                   D
E a chuva lentamente cobre a terra com um véu
D7                    G     D     A7         D
E o vento calmo a soprar o nosso jardim em flor
                   E7       A7                D
Quão felizes sentiremos em nosso castelo de amor

[Solo] A7  D  A7
       D  D7  G  A7  D 

                                A7         D
Quando um dia nossos sonhos tornarem realidade
D7              G         A7         D
Unidos então seremos em plena felicidade
D7             G        D     A7     D
Aí então cantaremos louvores ao criador
                  E7     A7                D
Será mesmo um paraíso o nosso castelo de amor

[Final] A7  D  A7  D6
00:00 / 00:00
Outros vídeos desta música
Repetir
Outros vídeos desta música
445.166 exibições
    • ½ Tom
    • A
    • Bb
    • B
    • C
    • Db
    • D
    • Eb
    • E
    • F
    • F#
    • G
    • Ab
  • Adicionar à lista

Afinação da cifra

Afinador online

    0 comentários

    Ver todos os comentários

    Entre para o Cifra Club PRO

    Tenha acesso a benefícios exclusivos no App e no Site

    • Chega de anúncios

    • Mais recursos no app do Afinador

    • Atendimento Prioritário

    • Aumente seu limite de lista

    • Ajude a produzir mais conteúdo

    00:00 / 00:00

    Cifra Club Pro

    Aproveite o Cifra Club com benefícios exclusivos e sem anúncios
    Cifra Club Pro
    Aproveite o Cifra Club com benefícios exclusivos e sem anúncios
    OK