Cifra Club

Chove Chuva

Jorge Ben Jor

Cifra: Principal (violão e guitarra)
Selo Cifra Club: esta cifra foi revisada para atender aos critérios oficiais da nossa Equipe de Qualidade.
tom: Am
[Intro] Am7  Dm7  Cm7  Am7
        Am7  Dm7  Cm7  Am7

[Tab - Intro]

Parte 1 de 5
            Am7
E|------------------------------------------|
B|----------5-5---5-5---5-5-5-5-------------|
G|----------5-5---5-5---5-5-5-5-------------|
D|----------5-5---5-5---5-5-5-5-------------|
A|------------------------------------------|
E|-0-0-3-0--5---0-5---0-5-------------------|

Parte 2 de 5
            Dm7
E|----------5-5-----5-5-5----5-5-5----------|
B|----------6-6-----6-6-6----6-6-5----------|
G|----------5-5-----5-5-5----5-5-5----------|
D|------------------------------------------|
A|----------5----0--5------0-5-----0-3-0-3-0|
E|-0-0-5-0----------------------------------|

Parte 3 de 5
                              Cm7
E|-5-5-5----5-5-5----5-5-5----3-3-3---------|
B|-6-6-6----6-6-6----6-6-5----4-4-4---------|
G|-5-5-5----5-5-5----5-5-5----3-3-3---------|
D|------------------------------------------|
A|-5-----0--5-----0--5--------3-------------|
E|-------------------------0--------0-------|

Parte 4 de 5
   Am7
E|------------------------------------------|
B|-5-5-----5-5-5----5-5-5-5-----------------|
G|-5-5-----5-5-5----5-5-5-5-----------------|
D|-5-5-----5-5-5----5-5-5-5-----------------|
A|------------------------------------------|
E|-5----0--5-----0--5-----------------------|

Parte 5 de 5
   Am7
E|------------------------------------------|
B|-5-5-----5-5-5----5----5-5---5------------|
G|-5-5-----5-5-5----5----5-5---5------------|
D|-5-5-----5-5-5----5----5-5---5------------|
A|------------------------------------------|
E|-5----0--5-----0--5----5-----5------------|

[Refrão]

[Tab - Refrão]

Parte 1 de 3
   D7(9)
E|------------------------------------------|
B|-5--5----5--5---5-5--5----5-5-------------|
G|-5--5----5--5---5-5--5----5-5-------------|
D|-4--4----4--4---4-4--4----4-4-------------|
A|-5-------5------5-------5-----------------|
E|------5-------5----------------0----------|

Parte 2 de 3
   Am7
E|------------------------------------------|
B|-5--5-----5--5-----5-5--5---5-5-----------|
G|-5--5-----5--5-----5-5--5---5-5-----------|
D|-5--5-----5--5-----5-5--5---5-5-----------|
A|------------------------------------------|
E|-5-----0--5-----0--5------5------0--------|

Parte 3 de 3
   Am7              A7(13-)
E|------------------------------------------|
B|-5--5-----5-5-----6-6-6---6-6-6-6-6-------|
G|-5--5-----5-5-----6-6-6---6-6-6-6-6-------|
D|-5--5-----5-5-----5-5-6---5-5-5-5-5-------|
A|------------------0-----0------------0----|
E|-5-----0--5----0--------------------------|

        D7(9)             Am7
Chove chuva, chove sem parar
        D7(9)             Am7  A7(13-)
Chove chuva, chove sem parar

[Primeira Parte]

[Tab - Primeira Parte]

Parte 1 de 5
   D7(9)         G7
E|------------------------------------------|
B|-5--5----5--5----3-3--3---3-3-------------|
G|-5--5----5--5----4-4--4---4-4-------------|
D|-4--4----4--4----3-3--3---3-3-------------|
A|-5-------5--------------------------------|
E|------0-------0--3------3-----0-----------|

Parte 2 de 5
   Am7               A7(13-)
E|------------------------------------------|
B|-5--5-----5-5-----6-6--6-----6-6----------|
G|-5--5-----5-5-----6-6--6-----6-6----------|
D|-5--5-----5-5-----5-5--6-----5-5----------|
A|------------------0-------0---------------|
E|-5-----0--5----0--------------------------|

Parte 3 de 5
   Am7      D7(9)  Am7     D7(9)
E|------------------------------------------|
B|-5--5-----5-5----5---5---5----5-5---------|
G|-5--5-----5-5----5---5---5----5-5---------|
D|-5--5-----4-4----5---5---4----4-4---------|
A|----------5-----------------5-------------|
E|-5-----0-----------5----------------------|

Parte 4 de 5
   Am       A7(13-)  Dm7(9)  G7
E|------------------------------------------|
B|-5--5-----6-6------5---5---3----3-3-------|
G|-5--5-----6-6------5---5---4----4-4-------|
D|-5--5-----5-5------3---3---3----3-3-------|
A|----------0----------5--------------------|
E|-5-----0----------------------3------0----|

Parte 5 de 5
   Am7    A7(13-)
E|------------------------------------------|
B|-5------6---------------------------------|
G|-5------6---------------------------------|
D|-5------5---------------------------------|
A|--------0---------------------------------|
E|-5----------------------------------------|

                        D7(9)                      
Pois eu vou fazer uma prece
     G7            Am7  A7(13-)
Pra Deus nosso senhor
             D7(9)     G7   
Pra chuva parar de molhar
               Am7
O meu divino amor
  D7(9)      Am7                                         
Que é muito lindo
   D7(9)          Am7
É mais que o infinito
   A7(13-)  Dm7(9)  
É puro e   belo
    G7            Am7
Inocente como a flor
       A7(13-)    D7(9)  
Por favor chuva ruim
           G7                Am7
Não molhe mais o meu amor assim
A7(13-)                   D7(9)  
        Por favor chuva ruim
           G7                Am7  A7(13-)
Não molhe mais o meu amor assim

[Refrão]

        D7(9)             Am7
Chove chuva, chove sem parar
        D7(9)             Am7  A7(13-)
Chove chuva, chove sem parar

[Primeira Parte]

                        D7(9)                      
Pois eu vou fazer uma prece
     G7            Am7  A7(13-)
Pra Deus nosso senhor
             D7(9)     G7   
Pra chuva parar de molhar
               Am7
O meu divino amor
  D7(9)      Am7                                         
Que é muito lindo
   D7(9)          Am7
É mais que o infinito
   A7(13-)  Dm7(9)  
É puro e   belo
    G7            Am7
Inocente como a flor
       A7(13-)    D7(9)  
Por favor chuva ruim
           G7                Am7
Não molhe mais o meu amor assim
A7(13-)                   D7(9)  
        Por favor chuva ruim
           G7                Am7  A7(13-)
Não molhe mais o meu amor assim

[Refrão]

        D7(9)             Am7
Chove chuva, chove sem parar
        D7(9)             Am7  
Chove chuva, chove sem parar

[Final] D7(9)  Am7  D7(9)  Am7
        D7(9)  Am7  D7(9)  Am7
        D7(9)  Am7  D7(9)  Am7
        D7(9)  Am7  D7(9)  Am7

[Tab - Final]

Parte 1 de 3
   D7(9)
E|------------------------------------------|
B|-5--5----5--5---5-5--5----5-5-------------|
G|-5--5----5--5---5-5--5----5-5-------------|
D|-4--4----4--4---4-4--4----4-4-------------|
A|-5-------5------5-------5-----------------|
E|------5-------5----------------0----------|

Parte 2 de 3
   Am7
E|------------------------------------------|
B|-5--5-----5--5-----5-5--5---5-5-----------|
G|-5--5-----5--5-----5-5--5---5-5-----------|
D|-5--5-----5--5-----5-5--5---5-5-----------|
A|------------------------------------------|
E|-5-----0--5-----0--5------5------0--------|

Parte 3 de 3
   D7(9)                            Am7
E|------------------------------------------|
B|-5--5----5--5---5-5--5----5-5-----5-------|
G|-5--5----5--5---5-5--5----5-5-----5-------|
D|-4--4----4--4---4-4--4----4-4-----5-------|
A|-5-------5------5-------5-----------------|
E|------5-------5----------------0--5-------|
Outros vídeos desta música
752.342 exibições
  • Simplificar cifra
    • ½ Tom
    • Am
    • Bbm
    • Bm
    • Cm
    • C#m
    • Dm
    • Ebm
    • Em
    • Fm
    • F#m
    • Gm
    • G#m
  • Adicionar à lista

Afinação da cifra

Afinador online

    0 comentários

    Ver todos os comentários

    Entre para o Cifra Club PRO

    Tenha acesso a benefícios exclusivos no App e no Site

    • Chega de anúncios

    • Mais recursos no app do Afinador

    • Atendimento Prioritário

    • Aumente seu limite de lista

    • Ajude a produzir mais conteúdo

    Capítulos
    • Apresentação
    • Tocando a Música
    • Acordes da Intro
    • Tocando a Intro
    • Ensinando a Intro
    • Acordes do Refrão
    • Tocando o Refrão
    • Ensinando o Refrão
    • Acordes da Primeira Parte
    • Tocando a Primeira Parte
    • Ensinando a Primeira Parte
    • Dicas Finais e Encerramento

    Cifra Club Pro

    Aproveite o Cifra Club com benefícios exclusivos e sem anúncios
    Cifra Club Pro
    Aproveite o Cifra Club com benefícios exclusivos e sem anúncios
    OK