Cifra Club

Preciso Me Encontrar

Cartola

Cifra: Principal (violão e guitarra)
tom: A
[Intro]

Dm  Dm/C  Gm6/Bb  A7(13-)  A7

[Dedilhado Intro]

[Parte 1]

   Dm      Dm/C    Gm6/Bb
E|-------1-------1---------0----------------|
B|-----3-------3---------3---3--------------|
G|---2-------2---------0-------0------------|
D|-0-----------------2-----------2----------|
A|---------3-------1------------------------|
E|------------------------------------------|

[Parte 2]

   A7(13-)     A7
E|---------1---0----------------------------|
B|-------2---2---2--------------------------|
G|-----0-----0---0--------------------------|
D|---2--------------------------------------|
A|-0----------------------------------------|
E|------------------------------------------|

[Primeira Parte - Estrofe 1]

Dm  Dm/C  Gm6/Bb  Gm  G#º  A7  A7/G

Dm  Dm/C    Gm6/Bb  A7  A/C#


[Dedilhado Primeira Parte - Estrofe 1]

[Parte 1 De 5]

   Dm          Dm/C
E|-----1---1---------1----------------------|
B|-----3-----3-----3---3--------------------|
G|---2---2-------2--------------------------|
D|-0----------------------------------------|
A|-------------3----------------------------|
E|------------------------------------------|

[Parte 2 De 5]

       Gm6/Bb            Gm
E|---------------0--------------------------|
B|-------------3---3-----------3------------|
G|---------0---------0-------3---3----------|
D|-------2---2---------2---0-------0--------|
A|-3-2-1------------------------------------|
E|-----------------------3------------------|

[Parte 3 De 5]

           G#º
E|------------------------------------------|
B|---------------3-----3--------------------|
G|-------------4---4---4---4----------------|
D|-----------3-------3-3-3------------------|
A|------------------------------------------|
E|-0-1-2-3-4-----------4--------------------|

[Parte 4 De 5]

   A7        A7/G
E|------------------------------------------|
B|-------2-----------2----------------------|
G|-----0---------0--------------------------|
D|---2-----2---2---2------------------------|
A|-0----------------------------------------|
E|-----------3------------------------------|

[Parte 5 De 5]

   Dm      Dm/C        Gm6/Bb  A7     A/C#
E|-----1------------------------------------|
B|-----3-------3-----3------3------2------2-|
G|---2---2---2---2---1------0------0------2-|
D|-0----------------------------------------|
A|---------3-------2------1------0------4---|
E|------------------------------------------|


[Primeira Parte - Estrofe 2]

Dm  Dm/C  Gm6/Bb  Gm  

G#º  A7  A/C#  Dm

[Dedilhado Primeira Parte - Estrofe 2]


[Parte 1 De 4]

   Dm              Dm/C
E|-----1---1---1-----------1----------------|
B|-----3---------3-----3---3---3------------|
G|---2---2---2-------2---2-2-2---2----------|
D|-0----------------------------------------|
A|-----------------3------------------------|
E|------------------------------------------|

[Parte 2 De 4]

   Gm6/Bb            Gm
E|-------------0----------------------------|
B|---------3-----3--------------------------|
G|-----0-----0-----0---------3--------------|
D|---2---2-------------0---0-----0----------|
A|-1----------------------------------------|
E|-------------------3---3-----3------------|

[Parte 3 De 4]

   G#º             A7      A/C#
E|------------------------------------------|
B|---------3-------------2-------2----------|
G|-----4-------4-------0-------2------------|
D|---3---3---3---3---2-------2--------------|
A|-----------------0-------4----------------|
E|-4-------4--------------------------------|

[Parte 4 De 4]

   Dm
E|---------1--------------------------------|
B|-----3-------3----------------------------|
G|---2---2---2---2---2----------------------|
D|-0---------------0------------------------|
A|------------------------------------------|
E|------------------------------------------|


[Segunda Parte]

Ebº  D7  D/C  

Gm/Bb  Gm/A  Gm  Gm/Gb

Gm/F  Gm  Gm/F  C7/E  C7  F  

Gm6/Bb  A7


[Dedilhado Segunda Parte]

[Parte 1 De 4]

               Ebº
E|---------------------2--------------------|
B|-----------------1-----1------------------|
G|---------------2---2-----2----------------|
D|-----------0-1-------------1--------------|
A|-0-1-2-3-4--------------------------------|
E|------------------------------------------|

[Parte 2 De 4]

   D7      D/C    Gm/Bb  Gm/A   Gm  Gm/Gb
E|-------2----------------------------------|
B|-----1---------3---3------3-----3-----3---|
G|---2---------2-----3------3-----3-----3---|
D|-0---------4------------------------------|
A|---------3-------1------0-----------------|
E|------------------------------3-----2-----|

[Parte 3 De 4]

  Gm/F    Gm    Gm/F  C7/E
E|----------------------------0-------------|
B|-----3-----3----3-------------------------|
G|---3---3---3----3-------3-----3-----------|
D|----------------------2---2---------------|
A|------------------------------------------|
E|-1-------3----1-----0---------------------|

[Parte 4 De 4]

   C7             F   Gm6/Bb  A7
E|-------0--------1-------------------------|
B|---------1------1---3---3-----2-----------|
G|-----3-----3----2---0---0-----0-----------|
D|---2---------2--3---2---2-----2-----------|
A|-3--------------3---1-------0---0---------|
E|----------------1-------------------------|


[Primeira Parte - com ritmo]

Dm          Dm/C
   Deixe-me ir
        Gm/Bb
Preciso andar
     Gm          
Vou por aí a procurar
A7                 (frase 1)
   Rir pra não chorar

Dm/F          Dm/C
     Deixe-me ir
    Gm6/Bb
Preciso andar
     Gm          
Vou por aí a procurar
A7                 Dm6(9)
   Rir pra não chorar

[Primeira Parte - com ritmo]

[Parte 1 De 6]

   Dm       Dm/C     Gm6/Bb
E|-1-1---1--1-1---1-------------------------|
B|-3-3---3--3-3---3--3---3-3---3------------|
G|-2-2---2--2-2---2--0---0-0---0------------|
D|-0---0-------------2---2-2---2------------|
A|----------3---3------0-----0--------------|
E|------------------------------------------|

[Parte 2 De 6]

   Gm          G#º         A7
E|------------------------------------------|
B|-3-3-----------3-3---------2---2----------|
G|-3-3-----------4-4---------0---0----------|
D|-0-0-----------3-3---------2---2----------|
A|-------------------------0---0------------|
E|-3---0-1-2-3-4-----4-3-4------------------|


Parte 3 de 6 (Frase 1)

E|------------------------------------------|
B|------------------------------------------|
G|-1-2-0------------------------------------|
D|-------3-2-0-----------0-3-2--------------|
A|-------------3-1-0---2-------4-0----------|
E|-------------------4-------------3-1------|

[Parte 4 De 6]


   Dm/F     Dm/C    Gm6/Bb
E|----------1-1---1-------------------------|
B|-3-3---3--3-3---3--3---3-3---3------------|
G|-2-2---2--2-2---2--0---0-0---0------------|
D|-3-3---3-----------2---2-2---2------------|
A|----------3---3------1-----1--------------|
E|-----1------------------------------------|

[Parte 5 De 6]

   Gm          G#º         A7
E|------------------------------------------|
B|-3-3-----------3-3---------2---2----------|
G|-3-3-----------4-4---------0---0----------|
D|-0-0-----------3-3---------2---2----------|
A|-------------------------0---0------------|
E|-3---0-1-2-3-4-----4-3-4------------------|

[Parte 6 De 6]

   Dm6(9)
E|------------------------------------------|
B|---5-5---5-5------------------------------|
G|---4-4---4-4------------------------------|
D|---3-3---3-3------------------------------|
A|-5-----5-----5----------------------------|
E|------------------------------------------|


[Segunda Parte]

Ebº             D7 
    Quero assistir 

    D7/C   Gm/Bb  Gm/A  Gm 
Ao sol nascer
 Gm/Gb  Gm/F       Gm   Gm/F  C7/E
Ver as  águas dos rios cor___rer
          C/Bb        F
Ouvir os pássaros cantar
             Gm
Eu quero nascer
    A7   Dm
Quero viver


[Segunda Parte - com Ritmo]

[Parte 1 De 4]

               Ebº          D7     D/C
E|---------------2-2---2-2----2-2-----------|
B|---------------1-1---1-1----1-1----3-3----|
G|---------------2-2---2-2----2-2----2-2----|
D|-----------0-1-----1------0--------4-4----|
A|-0-1-2-3-4-----------------------3--------|
E|------------------------------------------|

[Parte 2 De 4]

   Gm/Bb  Gm/A  Gm   Gm/Gb  Gm/F  Gm   Gm/F
E|------------------------------------------|
B|---3------3-----3----3------3-3---3----3--|
G|---3------3-----3----3------3-3---3----3--|
D|---0------0-----0----0------0-0---0----0--|
A|-1------0---------------------------------|
E|--------------3----2------1-----3----1----|

[Parte 3 De 4]

   C7/E        C/Bb     F
E|----------------------1---1-1---1---------|
B|---1-1---------1---1--1---1-1---1---------|
G|---3-3---------0---0--2---2-2---2---------|
D|---2-2---------2---2----------------------|
A|---------3-2-1---1------------------------|
E|-0-----0----------------0-----0-----------|

[Parte 4 De 4]

   Gm   A7
E|------------------------------------------|
B|-3-3----2---------------------------------|
G|-3-3----0---------------------------------|
D|-0-0----2---------------------------------|
A|------0---0-------------------------------|
E|-3----------------------------------------|


[Primeira Parte]


         Dm/C
Deixe-me ir
    Gm/Bb
Preciso andar
     Gm          
Vou por aí a procurar
A7                 (frase 1)
   Rir pra não chorar

Dm/F        Dm/C           Gm6/Bb
     Se alguém por mim perguntar
  Gm            G#º
Diga que eu só vou voltar
A7                      Dm6(9)
   Depois que me encontrar

[Segunda Parte]

Ebº             D7 
    Quero assistir 

    D7/C   Gm/Bb  Gm/A  Gm 
Ao sol nascer
 Gm/Gb  Gm/F       Gm   Gm/F  C7/E
Ver as  águas dos rios cor___rer
          C/Bb        F
Ouvir os pássaros cantar
             Gm
Eu quero nascer
    A7   Dm
Quero viver

[Primeira Parte - Final]


         Dm/C
Deixe-me ir
    Gm/Bb
Preciso andar
     Gm          
Vou por aí a procurar
A7                 (frase 2)
   Rir pra não chorar

Dm          Dm/C
   Deixe-me ir
    Gm/Bb
Preciso andar
     Gm          
Vou por aí a procurar
A7                 (frase 2)
   Rir pra não chorar

Dm          Dm/C
   Deixe-me ir
    Gm/Bb
Preciso andar
     Gm          
Vou por aí a procurar
A7                 (frase 2)
   Rir pra não chorar


[Frase 2]

[Parte 1]

E|------------------------------------------|
B|------------------------------------------|
G|-1h2-0------------------------------------|
D|-------3-2p0-----------0-3-2p0------------|
A|-------------3-1p0---2--------------------|
E|-------------------4----------------------|

[Parte 2]

E|------------------------------------------|
B|------------------------------------------|
G|------------------------------------------|
D|-------------0----------------------------|
A|-4-1p0------------------------------------|
E|-------3-1p0------------------------------|


[Solo Fagote - Intro, Primeira Parte e Segunda Parte]

[Parte 1 De 6]

E|------------------------------------------|
B|------------------------------------------|
G|-----2-----2--------2-------2-------------|
D|---3-----3--------3-------3---------------|
A|-5-----5-----5--5-----5-5-----5-----------|
E|------------------------------------------|

[Parte 2 De 6]

E|------------------------------------------|
B|------------------------------------------|
G|-2----------------------------------------|
D|---5--2-5--3------------------------------|
A|-------------5----------------------------|
E|------------------------------------------|

[Parte 3 De 6]

E|------------------------------------------|
B|------------------------------------------|
G|-----2-----2--------2-----2---------------|
D|---3-----3--------3-----3-----------------|
A|-5-----5-----5--5-----5-----5-------------|
E|------------------------------------------|

[Parte 4 De 6]

E|------------------------------------------|
B|------------------------------------------|
G|-2----------------------------------------|
D|---5--2-5--3------------------------------|
A|-------------5----------------------------|
E|------------------------------------------|

[Parte 5 De 6]

E|------------------------------------------|
B|-----3-----3------3-----3-----------------|
G|---2-----2------3---3-----3---------------|
D|-4-----4-----5--------5-----5-2-----------|
A|------------------------------------------|
E|------------------------------------------|

[Parte 6 De 6]

E|------------------------------------------|
B|------------------------3-1---------------|
G|-----5-------5--------2-----3-2-0---------|
D|-2-5---2-2-5---3--0h3-------------0-------|
A|------------------------------------------|
E|------------------------------------------|
00:00 / 00:00
Outros vídeos desta música
Repetir
Outros vídeos desta música
Composição de Candeia
Colaboração e revisão:
  • Leandro Sandim
52.305 exibições
  • Simplificar cifra
    • ½ Tom
    • A
    • Bb
    • B
    • C
    • Db
    • D
    • Eb
    • E
    • F
    • F#
    • G
    • Ab
  • Adicionar à lista

    0 comentários

    Ver todos os comentários

    Conseguiu tocar?

    17 Tocaram 5 Ainda não

    Grave um vídeo tocando Preciso Me Encontrar e nos envie!

    00:00 / 00:00
    Capítulos
    • Apresentação / Equipamentos
    • Tocando a Música
    • Acordes Introdução e Primeira Parte
    • Tocando Introdução e Primeira Parte
    • Ensinando Introdução e Primeira Parte
    • Acordes Segunda Parte
    • Tocando Segunda Parte
    • Ensinando Segunda Parte
    • Encerramento

    Cifra Club Pro

    Aproveite o Cifra Club com benefícios exclusivos e sem anúncios
    Cifra Club Pro
    Aproveite o Cifra Club com benefícios exclusivos e sem anúncios
    OK