Cifra Club

Preciso me encontrar

Cartola

Cifra: Principal
exibições 341.291
Tom: F
INTRODUÇÃO

     Dm       Dm/C     Em7(b5)          A7
E|-------1--------1----------0-----------------1---0-----------------------|
B|-----3--------3----------3---3-------------2---2---2---------------------|
G|---2--------2----------0-------0---------0-------------------------------|
D|-0-------------------2-----------2-----2---------------------------------|
A|----------3--------1-----------------0-----------------------------------|
E|-------------------------------------------------------------------------|

     Dm              Dm/C            Em7(b5)        Gm6
E|---------1---------------1-----------------------------------------------|
B|-----3-----3---------3-----3-------------3---------------3---------------|
G|---2---------2-----2-----------------0-----0---------3-----3-------------|
D|-0-----0-------0-------------------2---------2-----2---------------------|
A|-----------------3-----3-----3-2-1-----1-------1-------------------------|
E|-------------------------------------------------3-----3-----------------|

             G#°                           A7              A7/G
E|-------------------------------------------------------------------------|
B|-----------------3-------------3---------------2---------------2---------|
G|-------------4-----4-------4-----4---------0-----0---------0-----0-------|
D|-----------3---------3---3---------3-----2---------2-----2---------2-----|
A|---------------------------------------0-----0-------0-------------------|
E|-0-1-2-3-4-----4-------4-----4-------4-----------------3-----3-------3---|

     Dm      Dm/C    Dm/B  Em7(b5)  A7   A7/C#
E|-----1-------1-----1-----------------------------------------------------|
B|-----3-------3-----3-----3-----------2----2------------------------------|
G|---2---2---2---2---2-----0-----------0----2------------------------------|
D|-0-----------------------2-----------2----5------------------------------|
A|---------3-------2-----1-----------0----4--------------------------------|
E|-------------------------------------------------------------------------|

     Dm              Dm/C            Em7(b5)      Gm6
E|---------1---------------1-----------------------------------------------|
B|-----3-----3---------3-----3-------------3---------------3---------------|
G|---2---------2-----2---------2-------0-----0---------3-----3-------------|
D|-0-----0-------0-------------------2---------2-----2---------2-----------|
A|-----------------3-----3-------3-1-----1-------1-------------------------|
E|-------------------------------------------------3-----3-------3---------|

     G#°             A7      A7/C#    Dm
E|------------------------------------------1------------------------------|
B|---------3-----------2-------2--------3-----3----------------------------|
G|-----4-----4---------0-------2------2---------2--------------------------|
D|---3---------3-----2---2---5------0-----0-------0------------------------|
A|-----------------0-------4-----4-----------------------------------------|
E|-4-----4-------4---------------------------------------------------------|

                 D#°             D7      D7/C    Em7(b5)   Gm6
E|---------------------2-----------2-------2-------------------------------|
B|-----------------1-----1---------1-------1-----3--------3---3---3--------|
G|---------------2---------2-----2---2---2---2---0--------0---3---3--------|
D|-----------0-1-----1-------1-0-----------------2--------2---2---2--------|
A|-0-1-2-3-4---------------------------3-------1--------0------------------|
E|----------------------------------------------------------3---2----------|

     Gm/F            C7/E          C7                 F  Em7(b5)  A7
E|---------3-----------------------------0----------1----------------------|
B|-----3-----3-------------1---------------1--------1--3-3-----------2-2---|
G|---3-----------------3-----3-------3-------3------2--0-0-----------0-0---|
D|-------------------2---------2---2-----------2----3--2-2-----------2-2---|
A|-------------------------------3-----3------------3--1-----------0-------|
E|-1-----1-----3-1-0-----0--------------------------1----------------------|



ESTROFE 1

Dm       Dm/C          Em7(b5)
Deixe-me ir, preciso andar

            Gm6          G#º
   Vou por aí a procurar
E|-------------------------------------------------------------------------|
B|-------------3-----------------------6-----------------------------------|
G|-------------3-------------------4-7-------------------------------------|
D|-------------2---------------3-6-----------------------------------------|
A|-------------------------2-5---------------------------------------------|
E|-----------3---0-1-2-3-4-------------------------------------------------|

   A7          Dm                 G#º       A7  Dm/F
   Rir pra não chorar
E|---------0---------------------------------------------------------------|
B|---2-----2----------------------------------------3----------------------|
G|---0-----0----0-2-0-------------------------------2----------------------|
D|---2----------------3-2-0-----------0-3-2---------0----------------------|
A|-0----0-------------------3-1-0---2-------4-0----------------------------|
E|--------------------------------4-------------3-1------------------------|



ESTROFE 2

Dm/F       Dm/C          Em7(b5)
Deixe-me ir, preciso andar
         Gm6        G#º
Vou por aí a procurar

   A7   A7/C#      Dm                     D#°
   Rir  pra não chorar
E|--------------------1------1--------------2------------------------------|
B|---2----2---2-------3------2--------------1------------------------------|
G|---0----2---2-------2------3--------------2------------------------------|
D|---2----5---5----0--------0-----------0-1--------------------------------|
A|-0----4-----------------0---0-1-2-3-4------------------------------------|
E|----------------------1--------------------------------------------------|



ESTROFE 3

D#°         D7       D7/C   Em7(b5)
Quero assistir ao sol nascer

   Em7(b5)  Gm6   Gm/F                C7/E
   Ver         as    águas dos rios correr
E|---------------------3-----3---------------------------------------------|
B|--3--3--------3--3---3-----3-------------1-------------------------------|
G|--0--0--------3--3---3-----3-------------3-------------------------------|
D|--2--2--------2--2-----------------------2-------------------------------|
A|-1--0--------------------------------------------------------------------|
E|-------------3--2--1-----1---3-1----0------------------------------------|


C7/E     C7             F
Ouvir os pássaros cantar

             Em7(b5)/Bb  A7      Dm
Eu quero nascer,         quero viver



ESTROFE 4

Dm       Dm/C          Em7(b5)
Deixe-me ir, preciso andar

            Gm6          G#º
   Vou por aí a procurar
E|-------------------------------------------------------------------------|
B|-------------3-----------------------6-----------------------------------|
G|-------------3-------------------4-7-------------------------------------|
D|-------------2---------------3-6-----------------------------------------|
A|-------------------------2-5---------------------------------------------|
E|-----------3---0-1-2-3-4-------------------------------------------------|

   A7          Dm                 G#º       A7  Dm/F
   Rir pra não chorar
E|---------0---------------------------------------------------------------|
B|---2-----2----------------------------------------3----------------------|
G|---0-----0----0-2-0-------------------------------2----------------------|
D|---2----------------3-2-0-----------0-3-2---------0----------------------|
A|-0----0-------------------3-1-0---2-------4-0----------------------------|
E|--------------------------------4-------------3-1------------------------|



ESTROFE 5

Dm/F      Dm/C          Em7(b5)
Se alguém por mim perguntar
         Gm6            G#º
Diga que eu só vou voltar

   A7   A7/C#      Dm                     D#°
   Depois de eu me encontrar
E|--------------------1------1--------------2------------------------------|
B|---2----2---2-------3------2--------------1------------------------------|
G|---0----2---2-------2------3--------------2------------------------------|
D|---2----5---5----0--------0-----------0-1--------------------------------|
A|-0----4-----------------0---0-1-2-3-4------------------------------------|
E|----------------------1--------------------------------------------------|



ESTROFE 6

D#°         D7       D7/C   Em7(b5)
Quero assistir ao sol nascer

   Em7(b5)/Bb  Gm6   Gm/F                C7/E
   Ver         as    águas dos rios correr
E|---------------------3-----3---------------------------------------------|
B|--3--3--------3--3---3-----3-------------1-------------------------------|
G|--0--0--------3--3---3-----3-------------3-------------------------------|
D|--2--2--------2--2-----------------------2-------------------------------|
A|-1--0--------------------------------------------------------------------|
E|-------------3--2--1-----1----3-1----0-----------------------------------|

   C7/E     C7             F              Em7(b5)  A7      Dm
   Ouvir os pássaros cantar  Eu quero nascer,         quero viver
E|---------------------------------------------------------------1---------|
B|-------------------------------------------3------2---2--------3---------|
G|-------------------------------------------0------0---0--------2---------|
D|---------------------------3-2-1-0---------2------2---2------0-----------|
A|-----------------------------------4-3-2-1------0------------------------|
E|-------------------------1-----------------------------------------------|



ESTROFE 7

Dm       Dm/C          Em7(b5)
Deixe-me ir, preciso andar

            Gm6          G#º
   Vou por aí a procurar
E|-------------------------------------------------------------------------|
B|-------------3-----------------------6-----------------------------------|
G|-------------3-------------------4-7-------------------------------------|
D|-------------2---------------3-6-----------------------------------------|
A|-------------------------2-5---------------------------------------------|
E|-----------3---0-1-2-3-4-------------------------------------------------|

   A7            Dm                  G#º          A7    Dm/F  Dm
   Rir pra não   chorar
E|---------0---------------------------------------------------------------|
B|---2-----2--2------------------------------------------------------------|
G|---0-----0--0-----0-2-0--------------------------------------------------|
D|---2--------2-----------3-2p0-----------0-3-2p0-------------0------------|
A|-0----0--------0--------------3-1p0---2---------4-1p0--------------------|
E|------------------------------------4-----------------3-1p0--------------|
                            |___| |___| |___| |___| |___| |___|
                              3     3     3     3     3     3

REPITA ESTROFE 7
Acordes para:

    0 comentários

      mostrar mais comentários

      Conseguiu tocar?

      21tocaram14ainda não

      Grave um vídeo tocando Preciso me encontrar e mande pra gente!

      00:00 / 00:00
      outros vídeos desta música
      repetirqualidadeautomática
      Outro vídeos desta música
        00:00 / 00:00
        automática
        OK