Cifra Club

O Mundo É Um Moinho

Cartola

Cifra: Principal
exibições 693.950
Tom: A
(Intro:)

D#m7(b5)  E/D  C#m7    Ebº  Bm7  B7  E7  A6(9)  G7  F#7

(parte 1)
             D#m7(5-)        E/D
E|---------2---------------0----------------|
B|-----2---2---2-------0---0---0------------|
G|---2---2-2-2---2---1---1-1-1---1----------|
D|-1-------1-------0-------0----------------|
A|------------------------------------------|
E|------------------------------------------|


(parte 2)
             C#m7                  Ebº
E|------------------------------------------|
B|---------5---------------7----------------|
G|-----4---4---4-------2---5---5------------|
D|---6---6-6-6---6---4---4-7-7---7----------|
A|-4-------4-------3-------6----------------|
E|------------------------------------------|


(parte 3)
             Bm7                 B7 E7
E|---------------------2------0-------------|
B|---------3-----------4------0-------------|
G|-----2---2---2-------2------1-------------|
D|---4---4-4-4---4---4-4----0-0-------------|
A|-2-------2-------2---2------2-------------|
E|------------------------0---0-------------|

(parte 4)
            A6(9)            G7      F#7
E|------------------------------------------|
B|---------2-----------3-------2------------|
G|-----4---4-----------4-------3------------|
D|---4---4-4-4-------3-------2--------------|
A|-0-------0---0----------------------------|
E|---------------4-3-----3-2----------------|

(primeira parte)
         Bm7     Bm/A
Ainda é cedo amor,
         E7/G#  E7              C#m7
mal começaste     a conhecer a vida
        A       A/G        D/F#
Já anuncias a  hora de partida
           Bm7                     E7   C#m7(5-)   F#7
Sem saber mesmo o rumo que irás tomar

            Bm7        Bm/A
Preste atenção querida,
   E7/G#        E7                 C#m7
embora eu saiba    que estás resolvida
            A           A/G         D/F#
Em cada esquina cai um pouco a tua vida
          Bm7                       E7   E7/B
Em pouco tempo  não serás mas o que és

(primeira parte)

(parte 1)
             Bm7     Bm/A    E7/G#   E7
E|------------------------------------------|
B|-------3-------3-------3-------0----------|
G|-----2-------4-------4-------1------------|
D|---4-------4-------2-------0--------------|
A|-2-------0--------------------------------|
E|-----------------4-------0----------------|

(parte 2)
             C#m7             A      A/G
E|------------------------------------------|
B|---------5-------------2-------2----------|
G|-----4---4---4-------2-------2------------|
D|---6---6-6-6---6---2-------2--------------|
A|-4-------4-------0------------------------|
E|-------------------------3----------------|

(parte 3)
             D/F#            Bm7
E|------------------------------------------|
B|---------3---------------3----------------|
G|-----2---2---2-------2---2---2------------|
D|---0---0-0-0---0---4---4-4-4---4----------|
A|-----------------2-------2----------------|
E|-2-------2--------------------------------|

(parte 4 - 1ª vez)
             E7              C#m7(5-) F#7
E|------------------------------------------|
B|---------0-------------5-------2----------|
G|-----1---1---1-------4-------3------------|
D|---0---0-0-0---0---5-------2--------------|
A|-----------------4------------------------|
E|-0-------0---------------2----------------|
                                      (...repete)
(parte 5 - 2ªvez)
             E7              E7/B
E|------------------------------------------|
B|---------0---------------3----------------|
G|-----1---1---1-------1---1---1------------|
D|---0---0-0-0---0---2---2-2-2---2----------|
A|-----------------2-------2----------------|
E|-0-------0--------------------------------|

(segunda parte)
         D#m7(5-)
Ouça-me bem amor,
            E/D               C#m7
preste atenção o mundo é um moinho
                                Bm7
Vai triturar teus sonhos, tão mesquinho
          E7               Bbº     F#7 F#7/E
Vai  reduzir as ilusões a pó,

            D#m7(5-)
Preste atenção querida
          E/D                    C#m7
de cada amor tu herdarás só o cinismo,
                                Bm7
quando notares estás a beira do abismo
  B7          E7             A6(9) G7 F#7
Abismo que cavaste com teus pés.

(segunda parte)

(parte 1)
             D#m7(5-)        E/D
E|---------2---------------0----------------|
B|-----2---2---2-------0---0---0------------|
G|---2---2-2-2---2---1---1-1-1---1----------|
D|-1-------1-------0-------0----------------|
A|------------------------------------------|
E|------------------------------------------|

(parte 2)
             C#m7            
E|------------------------------------------|
B|---------5---------------4----------------|
G|-----4---4---4-------2---2---2------------|
D|---6---6-6-6---6---4---4-4-4---4----------|
A|-4-------4-------3-------3----------------|
E|------------------------------------------|

(parte 3 - 1ª vez)
             Bm7             E7
E|------------------------------------------|
B|---------3---------------0----------------|
G|-----2---2---2-------1---1---1------------|
D|---4---4-4-4---4---0---0-0-0---0----------|
A|-2-------2--------------------------------|
E|-----------------0-------0----------------|

(parte 4)
             Bbº             F#7     F#7/E
E|------------------------------------------|
B|---------2-----------2-------2------------|
G|-----0---0---0-------3-------3------------|
D|---2---2-2-2---2---2-------2--------------|
A|-1-------1--------------------------------|
E|-----------------2-----2-0----------------|

(parte 5 - 2ª vez)
             Bm7             B7    E7
E|------------------------------------------|
B|---------3-----------4-----0--------------|
G|-----2---2---2-------2-----1--------------|
D|---4---4-4-4---4---4-----0----------------|
A|-2-------2-------2------------------------|
E|-----------------------0------------------|

(parte 6)
            A6(9)                  G7      F#7
E|------------------------------------------|
B|-------2---------------3-------2----------|
G|-----4-----------------4-------3----------|
D|---4-----0p2---------3-------2------------|
A|-0-----------4-0--------------------------|
E|-----------------4-3-----3-2--------------|

(ritmo da repetição)

(primeira parte)

(parte 1)
            Bm7     Bm/A    E7/G#   E7
E|------------------------------------------|
B|---3---3---3---3---3---3---0---0----------|
G|---2---2---4---4---4---4---1---1----------|
D|---4---4---4---4---2---2---0---0----------|
A|-2-------0--------------------------------|
E|-----------------4-------0----------------|

(parte 2)
             C#m7             A      A/G
E|------------------------------------------|
B|---5---5---5---5---2---2---2---2----------|
G|---4---4---4---4---2---2---2---2----------|
D|---6---6---6---6---2---2---2---2----------|
A|-4-------4-------0------------------------|
E|-------------------------3----------------|

(parte 3)
             D/F#            Bm7
E|------------------------------------------|
B|---3---3---3---3---3---3---3---3----------|
G|---2---2---2---2---2---2---2---2----------|
D|---0---0---0---0---4---4---4---4----------|
A|-----------------2-------2----------------|
E|-2-------2--------------------------------|

(parte 4 - 1ª vez)
             E7                   C#m7(5-) F#7
E|------------------------------------------|
B|---0---0----------------5--------2---2----|
G|---1---1----------------4--------3---3----|
D|---0---0--------0-2-0---5--------2---2----|
A|--------------2-------4----0--------------|
E|-0--------0-4----------------3-2----------|
                                    (...repete)
(parte 5 - 2ªvez)
             E7              E7/B
E|------------------------------------------|
B|---0---0-----------0---0---0---0----------|
G|---1---1-----------1---1---1---1----------|
D|---0---0-2-0-------0---0---0---0----------|
A|-------------4-3-2-------2----------------|
E|-0----------------------------------------|

(ritmo da repetição)

(segunda parte)

(parte 1)
             D#m7(5-)        E/D
E|---2---2---2---2---0---0---0---0----------|
B|---2---2---2---2---0---0---0---0----------|
G|---2---2---2---2---1---1---1---1----------|
D|-1-------1-------0-------0----------------|
A|------------------------------------------|
E|------------------------------------------|

(parte 2)
             C#m7            
E|------------------------------------------|
B|---5---5---5---5---4---4---4---4----------|
G|---4---4---4---4---2---2---2---2----------|
D|---6---6---6---6---4---4---4---4----------|
A|-4-------4-------3-------3----------------|
E|------------------------------------------|

(parte 3 - 1ª vez)
             Bm7             E7
E|------------------------------------------|
B|---3---3---3---3---0---0---0---0----------|
G|---2---2---2---2---1---1---1---1----------|
D|---4---4---4---4---0---0---0---0----------|
A|-2-------2--------------------------------|
E|-----------------0-------0----------------|

(parte 4)
             Bbº             F#7     F#7/E
E|------------------------------------------|
B|---2---2-----------2-------2---2----------|
G|---0---0-----------3-------3---3----------|
D|---2---2-----------2-------2---2----------|
A|-1-------1-2-1----------------------------|
E|---------------3-2-----2-0----------------|

(parte 5 - 2ª vez)
             Bm7             B7      E7
E|------------------------------------------|
B|---3---3---3---3---4---4---0---0----------|
G|---2---2---2---2---2---2---1---1----------|
D|---4---4---4---4---4---4---0---0----------|
A|-2-------2-------2------------------------|
E|-------------------------0----------------|

(parte 6)
            A6(9)               G7     F#7
E|------------------------------------------|
B|---2---2-------------3-------2---2--------|
G|---4---4-------------4-------3---3--------|
D|---4---4-0p2---------3-------2---2--------|
A|-0-----------4-0--------------------------|
E|-----------------4-3-----3-2--------------|

(final) D#m7(b5)  E/D  C#m7    Ebº  Bm7  B7  E7  A7M(6/11+)

(parte 1)
             D#m7(5-)        E/D
E|---2---2---2---2---0---0---0---0----------|
B|---2---2---2---2---0---0---0---0----------|
G|---2---2---2---2---1---1---1---0----------|
D|-1-------1-------0-------0----------------|
A|------------------------------------------|
E|------------------------------------------|

(parte 2)
             C#m7                  Ebº
E|------------------------------------------|
B|---5---5---5---5---4---4---7---7----------|
G|---4---4---4---4---2---2---5---5----------|
D|---6---6---6---6---4---4---7---7----------|
A|-4-------4-------3-------6----------------|
E|------------------------------------------|

(parte 3)
             Bm7             B7      E7
E|------------------------------------------|
B|---3---3---3---3---4---4---0---0----------|
G|---2---2---2---2---2---2---1---1----------|
D|---4---4---4---4---4---4---0---0----------|
A|-2-------2-------2------------------------|
E|-------------------------0----------------|

(parte 4)
            A6(9)                   A7M(6/11+)
E|------------------------4-----------------|
B|---2---2----------------4-----------------|
G|---4---4----1-----------6-----------------|
D|---4---4------4-2-0-----4-----------------|
A|-0-------0----------4-2-0-----------------|
E|------------------------------------------|
Acordes para:

    0 comentários

      mostrar mais comentários

      Conseguiu tocar?

      72tocaram2ainda não

      Grave um vídeo tocando O Mundo É Um Moinho e mande pra gente!

      00:00 / 00:00
      outros vídeos desta música
      repetirqualidadeautomática
      Outro vídeos desta música
        00:00 / 00:00
        automática
        Capítulos
        • Início
        • Tocando a música
        • Acordes da introdução
        • Tocando introdução
        • Ensinando dedilhado da introdução
        • Ensinando dedilhado da intro (parte 1)
        • Ensinando dedilhado da intro (parte 2)
        • Ensinando dedilhado da intro (parte 3)
        • Ensinando dedilhado da intro (parte 4)
        • Acordes da primeira parte
        • Tocando a primeira parte
        • Ensinando dedilhado da primeira parte
        • Ensinando dedilhado da primeira parte (parte 1)
        • Ensinando dedilhado da primeira parte (parte 2)
        • Ensinando dedilhado da primeira parte (parte 3)
        • Ensinando dedilhado da primeira parte (parte 4)
        • Ensinando dedilhado da primeira parte (parte 5)
        • Acordes da segunda parte
        • Tocando a segunda parte
        • Ensinando ritmo da segunda parte
        • Ensinando ritmo da segunda parte (parte 1)
        • Ensinando ritmo da segunda parte (parte 2)
        • Ensinando ritmo da segunda parte (parte 3)
        • Ensinando ritmo da segunda parte (parte 4)
        • Ensinando ritmo da segunda parte (parte 5)
        • Ensinando ritmo da segunda parte (parte 6)
        • Dicas para repetição da música
        • Tocando repetição
        • Ensinando ritmo da repetição (parte 1)
        • Ensinando ritmo da repetição (parte 2)
        • Ensinando ritmo da repetição (parte 3)
        • Ensinando ritmo da repetição (parte 4)
        • Ensinando ritmo da repetição (parte 5)
        • Ensinando o ritmo da 2ª parte (parte 1)
        • Ensinando o ritmo da 2ª parte (parte 2)
        • Ensinando o ritmo da 2ª parte (parte 3)
        • Ensinando o ritmo da 2ª parte (parte 4)
        • Dicas e acorde final
        • Tocando trecho final
        • Ensinando dedilhado final
        • Encerramento
        OK