Notificações Amigos pendentes

      Kataklysm

      As The Glorious Weep Intro

      236 exibições
      Tom: F
      Album:  Epic (The Poetry of War)
      
      Tuning: B-E-A-D-G-B
      
      
      Note: This is just a basic start for the intro
      and chorus. I just got the dvd a couple days ago
      and figured this out watching it. The notes aren't
      exactly as played but just give you a good idea.
      
      Intro:
      
      |---1-1-1-1-1-1--0-0-0------------------|
      |---1-1-1-1-1-1--0-0-0------------------|
      |---2-2-2-2-2-2--2-2-2------------------|
      |---3-3-3-3-3-3--3-3-3--3-3-3--5-5-5----|
      |-----------------------3-3-3--5-5-5----|
      |-----------------------1-1-1--3-3-3----|
      
      
      Chorus:
      
      |----------------------------------------------------------------------|
      |----------------------------------------------------------------------|
      |---10-10-10-10-10-10-9-9-9-7-7-7--10-10-10-10-10-10-9-9-9-12-12-12----|
      |----------------------------------------------------------------------|
      |----------------------------------------------------------------------|
      |----------------------------------------------------------------------|
      

      Comentários 0

      140 .
      140 cancelar

      conseguiu tocar?

      covers

      Grave um vídeo tocando As The Glorious Weep Intro e mande pra gente!

      Ex.: http://www.youtube.com/watch?v=0IvSvIwGdwk
      ver covers de outras músicas »
      0:00 / 0:00

      Capítulos

        1 versão de violão dificuldade exibições contribuição e correção
        1 versão de guitarra dificuldade exibições contribuição e correção
        1 versão de cavaco dificuldade exibições contribuição e correção
        1 versão de teclado dificuldade exibições contribuição e correção
        play/pausefechar subir/descer velocidade
        6ª corda E5ª corda A4ª corda D3ª corda G2ª corda B1ª corda E
          acordes
          publicidade
          fechar
          ok