Cifra Club

Aprenda

Norte e sul

Kiko Zambianchi

Cifra: Principal (violão e guitarra)
Tom: G
Tab tirada por:Felipe Santana

Comentario:Só tiro tab 100% certa

        A                        E         A
Quanto mais o tempo passa mais percebo desespero 
A
Chamo os anjos da capela
A      E         A   
Conto a eles meu segredo
D                   E        A            E* B      
O que esperar do mundo não a paz pra se comprar
       D          E           A   
Sinto falta de amor no meu jantar

PONTE:
2x( A G D)

      A                         E          A
Eu queria aquele doce que a gente dava risada 
A                               E       A
Eu queria aquela musica que todo mundo pulava 
   D             E             A      E*B
E o Sol na minha cara e a vontade de viver
  D              E           A
E voltar a até floripa pra tiver

REFRÃO
        D            A              E             A
Rumo ao sul rumo ao norte eu vou levando a minha sorte
        D            A              E    
Rumo ao sul rumo ao norte eu vou levando

        A                 E     A
Se eu fosse poderoso limitava a riqueza 
A                           E            A
Eu fumava um caximbo com a pobre com a burguesa 
      D             E        A      E*  B
O que esperar do mundo somos nossa confusão
D               E       A
Sinto falta de amor no coração

PONTE:
2x( A G D)

    A                       E         A
Eu queria aquele gosto de infância divertida
A                                E          A
Eu queria aquelas tardes sem problema na familia 
        D       E             A   E*       B
Talvez nunca aconteça mais eu sou um sonhador
D               E             A
Sinto falta do calor de Salvador

REFRÃO
        D            A              E             A
Rumo ao sul rumo ao norte eu vou levando a minha sorte
        D            A              E    
Rumo ao sul rumo ao norte eu vou levando

Solo

REFRÃO
        D            A              E             A
Rumo ao sul rumo ao norte eu vou levando a minha sorte
        D            A              E    
Rumo ao sul rumo ao norte eu vou levando


Solo

2x
E----------------------------------------------|
B-----5b-5b------5b-5b------5b-5b--5b----------|
G-5b7--------5b7--------5b7-----------5h4-2v2v-|
D----------------------------------------------|
A----------------------------------------------|
E----------------------------------------------|

E--------10--10---------12--12-----------------------------------------------------------------|
B-8/9-10---------8/9-10---------8/9-10-12b12b12b12--------------10-10----------12-12-12b-10-10-|
G--------------------------------------------------11--9h11-11b-------9h11-11b-----------------|
D----------------------------------------------------------------------------------------------|
A----------------------------------------------------------------------------------------------|
E----------------------------------------------------------------------------------------------|

Legenda:

/=Slide,você toca na 8 casa e arrasta para a nona.
b=Bend,você toca na 12 casa e levanta a corda.
h=Hammer on,você toca na 9 casa e coloca o dedo na 11 casa com um só toque,o toque da 9 casa como exemplo dado(sem arrastar o dedo).

ACORDES:

 D(Ré) E(Mi) E*(Mi)  G(Sol)  A(Lá)    B(Si)
E-----|-----|-------|-------|-----|----------|
B-----|-----|-------|-------|-----|----------|
G--7--|--9--|-------|-------|-----|-------4--|
D--7--|--9--|---2---|---5---|--7--|--5----4--|
A--5--|--7--|---2---|---5---|--7--|--5-ou-2--|
E-----|-----|---0---|---3---|--5--|--7-------|
Colaboração e revisão:
  • Alker
11.062 exibições
    • ½ Tom
    • A
    • Bb
    • B
    • C
    • Db
    • D
    • Eb
    • E
    • F
    • F#
    • G
    • Ab
  • Adicionar à lista

    0 comentários

    Mostrar mais comentários

    Conseguiu tocar?

    0 Tocaram 0 Ainda não

    Grave um vídeo tocando Norte e sul e mande pra gente!

    00:00 / 00:00
    outros vídeos desta música
    repetir qualidade Automático
    Outros vídeos desta música
    00:00 / 00:00
    Automático

    Cifra Club Pro

    Aproveite o Cifra Club com benefícios exclusivos e sem anúncios
    Cifra Club Pro
    Aproveite o Cifra Club com benefícios exclusivos e sem anúncios
    OK