Enviar cifraEntrar

Apenas Mais Uma de Amor

Lulu Santos

Cifra: Principal
exibições 2.974.814
Tom: G
Intro:

Parte 1 de 4


E|---7-7-7-7-7----7-7-7-7-7----7-7-7-7-7----7-7-7-7-7-|
B|---3-3-3-3-3----3-3-3-3-3----3-3-3-3-3----3-3-3-3-3-|
G|-0-0-0-0-0-0--0-0-0-0-0-0--0-0-0-0-0-0--0-0-0-0-0-0-|
D|----------------------------------------------------|
A|----------------------------------------------------|
E|----------------------------------------------------|


Parte 2 de 4


E|---7-7-7----10-10-10-10-10----8-8-8-8-8----8--------|
B|---3-3-3-----6--6--6--6--6----5-5-5-5-5----4--------|
G|-0-0-0-0-0---0--0--0--0--0-0--0-0-0-0-0-0--0--------|
D|----------------------------------------------------|
A|----------------------------------------------------|
E|----------------------------------------------------|


Parte 3 de 4


E|-7-7-7-7-7----6-6-6-6-6-----------------------------|
B|-3-3-3-3-3----2-2-2-2-2-----------------------------|
G|-0-0-0-0-0-0--0-0-0-0-0-0---------------------------|
D|----------------------------------------------------|
A|----------------------------------------------------|
E|----------------------------------------------------|


Parte 4 de 4


E|---5-5-5-5-5-5-5-5--3---2---2----3-3-3-3-3-3--------|
B|---1-1-1-1-1-1-1-1--1-1-1-1-1----1-1-1-1-1-1--------|
G|---0-0-0-0-0-0-0-0--0-0-0-0-0----0-0-0-0-0-0--------|
D|-0-----------------------------0-----------0--------|
A|----------------------------------------------------|
E|----------------------------------------------------|


Primeira Parte:

    G
Eu gosto tanto de você
      C9
Que até prefiro esconder
G/B                            D4  D  D9
    Deixo assim ficar subentendi__do

Parte 1 de 2


   G                   C9
E|-7-7-7-7----5-3-3-2----3-3-3-2-2-0-0-2----|
B|-3-3-3-3----3-3-3------3-3-3-3-3-3-3-3----|
G|-0-0-0-0--0-0-0-0------0-0-0-0-0-0-0-0----|
D|-0-0-0-0--0-------------------------------|
A|---------------------3--------------------|
E|------------------------------------------|


Parte 2 de 2


   G/B              D4  D   D9  H.N.
E|---3-3-3-2-2-0-0--3---2-2-0---------------|
B|---3-3-3-3-3-3-3--3---3-3-3--7------------|
G|---0-0-0-0-0-0-0--2---2-2-2--7------------|
D|------------------0---0-0-0--7------------|
A|-2----------------------------------------|
E|------------------------------------------|


Segunda Parte:

           Am      G/B  C     D    G      D9
Como uma ideia que e___xiste na cabeça e não
        Am       G/B  C       D    G  C9  G  C9  G
Tem a menor obriga___ção de acontecer

Primeira Parte:

   G
Eu acho tão bonito isso
C9
   De ser abstrato, baby
G/B                       D4  D  D9
    A beleza é mesmo tão fu__gaz

Segunda Parte:

        Am      G/B  C     D    G      D9
É uma ideia que e___xiste na cabeça e não
         Am     G/B  C       D    G  C9  G
Tem a menor preten__são de acontecer

Refrão:

C9               D
   Pode até parecer fraqueza
          G       F6(9)   C9  G/B
Pois que seja fraqueza então
Am7            G11/B  C
    A alegria que me dá
      D            G  G7M  G7
Isso vai sem eu dizer

C                    D
  Se amanhã não for nada disso
     G       F6(9)    C9  G/B
Caberá só a mim esquecer
Am7                 G11/B     C
    O que eu ganho, o que eu perco
    D    G      C9     G  C9  G
Ninguém     precisa saber

(Repete Tudo)

Final:

   H.N.

E|----------------------------------------------------|
B|-12--7--5-------------------------------------------|
G|-12--7--5-------------------------------------------|
D|-12--7--5-------------------------------------------|
A|----------------------------------------------------|
E|----------------------------------------------------|
  • 1
  • 2
  • 3
  • 4
  • 5
  • 6
  • 7
  • 8
  • 9
  • 10
  • 11
  • 12
    Acordes para:

      0 comentários

        mostrar mais comentários
        00:00 / 00:00
        outros vídeos desta música
        repetirqualidadeautomática
        • automática
        Outro vídeos desta música
          Capítulos
          • Início
          • Tocando a Música
          • Tocando Introdução
          • Ensinando Introdução
          • Acordes Primeira Parte
          • Tocando Primeira Parte
          • Ensinando Primeira Parte
          • Acorde Segunda Parte
          • Tocando Segunda Parte
          • Ritmo Segunda Parte
          • Acordes Refrão
          • Tocando Refrão
          • Ritmo Refrão
          • Tocando Final
          • Encerramento
          00:00 / 00:00
          automática
          • automática
          1 versão de Tab de baixoexibiçõescontribuições
          3 versões de Partiturasformatodownloadscontribuição
          fecharplay/pause subir/descer velocidade
            Acordes para:violão e guitarra
            acordes
            fechar
            OK