Enviar cifraEntrar

Apenas Mais Uma de Amor

Lulu Santos

Cifra: Principal
exibições 2.884.209
Tom: F
Intro:


E|---7-7-7-7-7----7-7-7-7-7----7-7-7-7-7----7-7-7-7-7--|
B|---3-3-3-3-3----3-3-3-3-3----3-3-3-3-3----3-3-3-3-3--|
G|-0-0-0-0-0-0--0-0-0-0-0-0--0-0-0-0-0-0--0-0-0-0-0-0--|
D|-----------------------------------------------------|
A|-----------------------------------------------------|
E|-----------------------------------------------------|


E|---7-7-7-7-7---10-10-10-10-10----8-8-8-8-8------8--|
B|---3-3-3-3-3----6--6--6--6--6----5-5-5-5-5------4--|
G|-0-0-0-0-0-0----0--0--0--0--0-0--0-0-0-0-0-0----0--|
D|---------------------------------------------------|
A|---------------------------------------------------|
E|---------------------------------------------------|


E|-7-7-7-7-7-----6-6-6-6-6-----|
B|-3-3-3-3-3-----2-2-2-2-2-----|
G|-0-0-0-0-0-0---0-0-0-0-0-0---|
D|-----------------------------|
A|-----------------------------|
E|-----------------------------|


E|---5-5-5-5-5-5-5-5---3---2---2-----3-3-3-3-3-3--|
B|---1-1-1-1-1-1-1-1---1-1-1-1-1-----1-1-1-1-1-1--|
G|---0-0-0-0-0-0-0-0---0-0-0-0-0-----0-0-0-0-0-0--|
D|-0-------------------------------0-----------0--|
A|------------------------------------------------|
E|------------------------------------------------|


    G
Eu gosto tanto de você
      C9
Que até prefiro esconder

G/B                      D4 D D9
Deixo assim ficar sub-entendido

         Am  G/B    C    D    G
Como uma idéia que existe na cabeça
   D5(9)      Am     G/B  C      D    G C9 G C9 G
E não tem a menor obrigação de acontecer

   G                     C9
Eu acho tão bonito isso de ser abstrato, baby
G/B                   D4  D
A beleza é mesmo tão fulgaz
       Am      G/B  C   D    G
É uma idéia que existe na cabeça
  D5(9)      Am      G/B C      D     G  C9 G
E não tem a menor pretensão de acontecer

C9            D
Pode até parecer fraqueza
          G       F6(9)      C9 G/B
Pois que seja fraqueza então
Am7          G4/B  C
A alegria que me dá
     D             G   G7M G7
Isso vai sem eu dizer

C                   D
Se amanhã não for nada disso
    G       F6(9)       C9      G/B
Caberá só a mim esquecer (eu vou sobreviver)
Am7               G4/B       C
O que eu ganho e o que eu perco
 D      G      C9    G  C9 G
Ninguém   precisa saber

Repete a música toda desde a introdução.
  • 1
  • 2
  • 3
  • 4
  • 5
  • 6
  • 7
  • 8
  • 9
  • 10
  • 11
  • 12
    Acordes para:

      0 comentários

        mostrar mais comentários

        Conseguiu tocar?

        140tocaram6ainda não

        Grave um vídeo tocando Apenas Mais Uma de Amor e mande pra gente!

        00:00 / 00:00
        outros vídeos desta música
        repetirqualidadeautomática
        • automática
        Outro vídeos desta música
          Capítulos
          • Início
          • Tocando a Música
          • Tocando Introdução
          • Ensinando Introdução
          • Acordes Primeira Parte
          • Tocando Primeira Parte
          • Ensinando Primeira Parte
          • Acorde Segunda Parte
          • Tocando Segunda Parte
          • Ritmo Segunda Parte
          • Acordes Refrão
          • Tocando Refrão
          • Ritmo Refrão
          • Tocando Final
          • Encerramento
          00:00 / 00:00
          automática
          • automática
          1 versão de Tab de baixoexibiçõescontribuições
          3 versões de Partiturasformatodownloadscontribuição
          fecharplay/pause subir/descer velocidade
            acordes
            fechar
            OK
            Feedback