Cifra Club

Aprenda

De Borest

Kuase Nada

Cifra: Versão 2 (violão e guitarra)
tom: D


e|--3>5---5-5---5-3--3--3-2-2--2>3--3-2---2-0-0---0-2-2---0-2----|
B|------------------------------------------------------------3--|
G|---------------------------------------------------------------|
D|---------------------------------------------------------------|
A|---------------------------------------------------------------|
E|---------------------------------------------------------------|

e|-----5-------5-3-2----2-3--------------------------------------|
B|---3---3---3--------------3-----------3-3-3-2----2>3-2---------|
G|---------------------------------------------------------------|
D|---------------------------------------------------------------|
A|---------------------------------------------------------------|
E|---------------------------------------------------------------!

(Bm G D A)
Hoje aconteceu (o quê?), tudo que eu queria
Fiz coisa pra caralho, mas no fundo eu não sabia
Fui pro banheiro apertar um, pra começar a session,
E depois um cigarrin, só pra ficar de borest
E na sequência eu fui pra rua, com meu skatin
Enquanto eu andava, to fava meu diguizin
Chegando na casa do brother, já muito doidão
Entrei pela cozinha e senti um cheiro bom
O moleque, tava no quarto babando, no travesseiro
Eu disse: "Acorda moleque, eu já tofei o meu primeiro"
Logo depois que ele acordou vamo continuar a session
Minha mãe num tá em casa, então...

Refrão (Bm G D A)

Tá de boreeeeeest.....
Eu disse ôôôôôôôôô....
Tá de borest...
ô-ô-ôôô.....
Tá de boreeeeeeeest......

(Bm G D A)
Depois vamo pro posto, cantar um larigão
Hot dog e um suquinho, isso aqui tá muito bom
E agora naum tem grana pra comprar o meu careta
Só tenho R$1,50 , pra comprá minha camiseta
Vô na casa da minha mina ,o pai dela num tá lá
Hoje o dia vai ser bom, Vai rolar um pá-pá-pá
Eu te dou minha camiseta, mas compro um cigarrin
Que depois de um rango desse, eu tou na fissura sim
E na inércia nóis vazamo, pra continuar a session
Cigarrin depois do rango então...

Refrão (Bm G D A)

Tá de boreeeeeest.....
Eu disse ôôôôôôôôô....
Tá de borest...
ô-ô-ôôô.....
Tá de boreeeeeeeest......

(Bm G D A)
Depois a galera foi pro garagem de baú
Mas no meio do caminho os amigos deram bacú
O gambé num achou nada, a parada tava no mato
Como o gambé num sabia ele ficou indignado
"Cadê essa Parada?", o gambé me perguntou
Eu disse "Não mexo com isso", ele naum acreditou
Comecei a disfarçar mas o gambé num percebeu
E no final das contas, o pé-de-bota se fudeu
E agora não tem Jack, que é que vamo fazê?
Que tal entrar na roda e começar,
A SE BATEEER!!!!!

e|------------------------------------------------------------------------------------------------------------|
B|------------------------------------------------------------------------------------------------------------|
G|-------------------------------------------------------------------------------------------------7-7-7---3-4|
D|-------------------------------------4-4-5-5-7-7---------2-2-------------------------------------7-7-7-7-3-4|
A|-2-2-5-5-4-4---------2-2-3-3-4-4-5-5-----------------4-5-----5-4-2-2-5-5-4-4---------2-2-3-3-4-4-5-5-5-7-1-2|
E|-------------5-5-3-3-----------------------------5-5-------------------------5-5-3-3-------------------5----|

(Bm G D A) (mais rápido)
Saímos do garagem completamente suado
Eu tenho que admitir, que eu tava muito passado
Mas aquela noite, valeu a pena sangue bom
A gente bateu cabeça, e tava muito doidão
Então vamo pegá um atalho que eu tenho que ir pra casa
Eu só vou comprá uma breja, e pegá minha parada
Mas agora fudeu, eu esqueci onde comprei
Fiquei pensando e procurando até que enfim eu encontrei
Então pegue essa parada e bota logo aí no saco
Que o baú já tá passar e nóis vamo chegar atrasado
Ô moleque sai dessa nóia que não passa mais baú
Mas no meio do caminho a gente vai levá outro bacúúúúúúúúuúú

e|----------------------------------------------------------------|
B|--000000-333333-777777-5555-77-55-000000-33333-5-333333-222>3>2-|
G|----------------------------------------------------------------|
D|----------------------------------------------------------------|
A|----------------------------------------------------------------|
E|----------------------------------------------------------------|

Só tem mais uma "fina" vamos continuar a session,
Depois q "fina" for pra mente, tá de borest!!
Só tem mais uma "fina" vamos continuar a session, (2x)
Depois q "fina" for pra mente, tá de borest!!

(Bm G D A) 2x
Composição de Felipe Maguin
Colaboração e revisão:
  • Arthur souza
18.708 exibições
    • ½ Tom
    • A
    • Bb
    • B
    • C
    • Db
    • D
    • Eb
    • E
    • F
    • F#
    • G
    • Ab
  • Adicionar à lista

    0 comentários

    Ver todos os comentários
    00:00 / 00:00
    Outros vídeos desta música
    Repetir Qualidade Automático
    Outros vídeos desta música
    00:00 / 00:00
    Automático

    Cifra Club Pro

    Aproveite o Cifra Club com benefícios exclusivos e sem anúncios
    Cifra Club Pro
    Aproveite o Cifra Club com benefícios exclusivos e sem anúncios
    OK