Cifra Club

Stairway To Heaven

Led Zeppelin

Cifra: Solo (violão e guitarra)
tom: C
Solo – Parte 1 de 11
E|--------5---------------------------------|
B|----------8-5-----------------------------|
G|-7b9~---------7p5---7p5-------------------|
D|------------------7-----7p5---------------|
A|----------------------------8~------------|
E|------------------------------------------|

Solo – Parte 2 de 11
E|------8--8--8b10--8--5---------8~--10p8---|
B|-8b10------------------10-/10~------------|
G|------------------------------------------|
D|------------------------------------------|
A|------------------------------------------|
E|------------------------------------------|

E|------------------------------------------|
B|-10p8---8h10~-----------------------------|
G|------9-----------------------------------|
D|------------------------------------------|
A|------------------------------------------|
E|------------------------------------------|

Solo – Parte 3 de 11
E|-----5------------------------------------|
B|-------8-5--------------------------------|
G|-7b9-------7p5---7p5-----------5---5-5~-0-|
D|---------------7-----7p5---5-7---7--------|
A|-------------------------7----------------|
E|------------------------------------------|

Solo – Parte 4 de 11
E|-5----------------------------------------|
B|---8-5------------------------------------|
G|-------7p5---7p5--------------------------|
D|-----------7-----7-5-7p5-3----------------|
A|------------------------------------------|
E|------------------------------------------|

Solo – Parte 5 de 11
E|------------------------------------------|
B|-------6---------------------------13-----|
G|-----5---7p5---5-------12----12h14--------|
D|-/7----------7---7/14-----14--------------|
A|------------------------------------------|
E|------------------------------------------|

E|------------------------------------------|
B|-15b17-b17r15-13-15-13--------------------|
G|-----------------------14-----------------|
D|------------------------------------------|
A|------------------------------------------|
E|------------------------------------------|

E|-15b17~-b17r15-12-------------------------|
B|------------------15b17-15-13----13-------|
G|------------------------------14----------|
D|------------------------------------------|
A|------------------------------------------|
E|------------------------------------------|

Solo – Parte 6 de 11
E|------------------------------------------|
B|-15b17r15p13----13-15b17r15p13----13------|
G|-------------14----------------14---------|
D|------------------------------------------|
A|------------------------------------------|
E|------------------------------------------|

E|------------------------------------------|
B|-15b17r15p13----13-15b17r15p13----13------|
G|-------------14----------------14---------|
D|------------------------------------------|
A|------------------------------------------|
E|------------------------------------------|

E|------------------------------------------|
B|-15b17r15p13----13-15b17r15p13----13------|
G|-------------14----------------14---------|
D|------------------------------------------|
A|------------------------------------------|
E|------------------------------------------|

E|------------------------------------------|
B|-15b17r15p13----13-15b17r15p13----13------|
G|-------------14----------------14---------|
D|------------------------------------------|
A|------------------------------------------|
E|------------------------------------------|

E|-------------------------------------15b17|
B|-15b17r15p13----13-15b17r15p13----13------|
G|-------------14----------------14---------|
D|------------------------------------------|
A|------------------------------------------|
E|------------------------------------------|

Solo – Parte 7 de 11
E|-----15-----------------------------------|
B|-/17----17-15-13----13-15p13----13-15b17--|
G|-----------------14----------14-----------|
D|------------------------------------------|
A|------------------------------------------|
E|------------------------------------------|

E|-15---------------------------------------|
B|----b17r15p13-----------------------------|
G|--------------14~-------------------------|
D|------------------------------------------|
A|------------------------------------------|
E|------------------------------------------|

Solo – Parte 8 de 11
E|------15--17--15~-------------------------|
B|-/17--------------17\15p13----15p13----13-|
G|---------------------------14-------14----|
D|------------------------------------------|
A|------------------------------------------|
E|------------------------------------------|

E|------------------------------------------|
B|-15b17~-----------------------------------|
G|------------------------------------------|
D|------------------------------------------|
A|------------------------------------------|
E|------------------------------------------|

Solo – Parte 9 de 11
E|------------------------------------------|
B|-11b13---11b13-10------10-----------------|
G|-------------------12-----12b14~----------|
D|------------------------------------------|
A|------------------------------------------|
E|------------------------------------------|

Solo – Parte 10 de 11
E|------------------------------------------|
B|------------------------------------------|
G|-10b14--10-9p7\5h7p5-7h9p7p5--------------|
D|-----------------------------7~-----------|
A|------------------------------------------|
E|------------------------------------------|

Solo – Parte 11 de 11
E|----20p17----20p17----20p17----20p17------|
B|-17-------17-------17-------17-------17---|
G|------------------------------------------|
D|------------------------------------------|
A|------------------------------------------|
E|------------------------------------------|

E|-20p17----20b22~--------------------------|
B|-------17---------------------------------|
G|------------------------------------------|
D|------------------------------------------|
A|------------------------------------------|
E|------------------------------------------|
Composição de Jimmy Page / Robert Plant
Colaboração e revisão:
  • Caroline Leroy
  • Gabriel Chagas
  • Henry Doraciotto
479.567 exibições
  • Simplificar cifra
    • ½ Tom
    • A
    • Bb
    • B
    • C
    • Db
    • D
    • Eb
    • E
    • F
    • F#
    • G
    • Ab
  • Adicionar à lista

    0 comentários

    Ver todos os comentários
    00:00 / 00:00
    Outros vídeos desta música
    Repetir Qualidade Automático
    Outros vídeos desta música
    00:00 / 00:00
    Automático
    Capítulos
    • Tocando o solo
    • Dicas iniciais
    • Solo (80 bpm)
    • Solo (60 bpm)
    • Encerramento

    Cifra Club Pro

    Aproveite o Cifra Club com benefícios exclusivos e sem anúncios
    Cifra Club Pro
    Aproveite o Cifra Club com benefícios exclusivos e sem anúncios
    OK