Cifra Club

Since I´ve Been Loving You

Led Zeppelin

Cifra: Principal
exibições 119.967
Tom: G#
  Gtr I

|-----------8------|----------------------11-10-8-10-11-|
|---------8---11-8-|-11b13=======(11)r------------------|
|------------------|------------------------------------|
|------------------|------------------------------------|
|------------------|------------------------------------|
|------------------|------------------------------------|


  Fm
                  ~
|-10-8---10-8-----------------------------------|
|------9------9-9-9--8--------------------------|
|----------------------10---7-8-10-7-8----------|
|--------------------------------------10-8-----|
|-------------------------------------------10--|
|-----------------------------------------------|


  Cm
           ~~~~~~~~                         ~~              ~~~~~~~~
|-------------------------------------|------------------------------11-13-|
|-------------------------------------|------------------------------------|
|-----------------------8p7----7-8-10-|-10s12------(12)-12-12--(12)--------|
|-------8s10--(10)----------10--------|------------------------------------|
|-8p6---------------------------------|------------------------------------|
|-----8-------------------------------|------------------------------------|


  Fm
                                                                                ~~~
|-15p13p11-13-15-13-11-13-13------------------------13h15p13-11-13-15-13-11-13----|
|----------------------------13-13-(13)--(13)--(13)----------------------------13-|
|---------------------------------------------------------------------------------|
|---------------------------------------------------------------------------------|
|---------------------------------------------------------------------------------|
|---------------------------------------------------------------------------------|


 ~~~~~~~~~~~~~
|-------------------------------8-----------------------|
|-(13)---(13)--8s11---------7s8---11-8------------------|
|-------------------10s12--------------11-10-8----10----|
|----------------------------------------------10----10-|
|-------------------------------------------------------|
|-------------------------------------------------------|


  Cm
             ~~~~~~~~~~           ~~~~~~
|---------------------------------------------------------------------|
|----------------------------------------------------8-------11-13-13-|
|-8p7------------------8p7---------------8p7----8-10---10s12----------|
|-----10-8-8-8-(8)-(8)-----10-8-8-8-(8)------10-----------------------|
|---------------------------------------------------------------------|
|---------------------------------------------------------------------|


   ~~                              ~~~~~~~~~~~~
|------------11-13-13b15-13-11-13-13b15==(13)r------|
|-13---11h13----------------------------------------|
|---------------------------------------------------|
|---------------------------------------------------|
|---------------------------------------------------|
|---------------------------------------------------|


  Gm
  Gtrs I, II
                      ~~~~~~                      ~~~~~~
|------------------------------------10-13-13b15-13b15====(13)r\------|
|-11p8----8h11p8----8-8-(8)-------11-----------------------------9-11-|
|------10--------10---------10s12-------------------------------------|
|---------------------------------------------------------------------|
|---------------------------------------------------------------------|
|---------------------------------------------------------------------|


  Ab
   ~~~~~              PM              ~~
|--------11-------11----13b15--13b15-13--13b15--|
|-11b13-----11b13----11-------------------------|
|-----------------------------------------------|
|-----------------------------------------------|
|-----------------------------------------------|
|-----------------------------------------------|




      ~~
|-11---------------------|-------------------------------------||
|----13-(13)\------------|-------------------------------------||
|------------------------|---5------5b7-5------5------5b7-5----||
|-------------------/5---|-4---------------4-3-----------------||
|------------------------|-------------------------------------||
|-------------------/6---|-5----(5)--------5-4----(4)--------4-||


 Verso

   Cm                 Fm
|------------------|-------------------------|
|------------------|-------------------------|
|------------/8-/8S|=1--------8-10b12--10b12-|
|------------------|-------------------------|
|-3----------------|-------------------------|
|------------------|-------------------------|


  Cm
   ~~~~~
|---------------------------------------|
|---------------------------------------|
|-10b12----------10pb12r(10)-8-10-10b12-|
|---------------------------------------|
|---------------------------------------|
|---------------------------------------|


        ~~
|---------------------------------------------------|
|---------------/11b13==(11)r-11-8------------------|
|-8--------------------------------10-8p7----7-8-10-|
|---10-10---------------------------------10--------|
|---------------------------------------------------|
|---------------------------------------------------|


  Fm
         ~~
|-------------------------|------------------------------------------|
|-------------------------|------------------------------------------|
|-10--------------1-3-3s5-|-3s5-3-1-1s3s1-1s3-1-1s3s1-1s3-1-1s3s1-3--|
|----10-10----------------|------------------------------------------|
|-----------------3-5-5s6-|-5s6-5-3-3s5s3-3s5-3-3s5s3-3s5-3-3s5s3-5--|
|-------------------------|------------------------------------------|


  Cm
    ~
|-------------------------------------|
|-------------------------------------|
|-3s5---------------------------------|
|-------------10-12-12-13-12-12-10----|
|-5s6------------------------------13-|
|-------------------------------------|


                                                   ~~
|-------------------------------------------------------------------------|
|----------------------------11-------------------------------------------|
|----------10h11p10-------12----10h11p10----10----------------------------|
|-10-12-13----------13-10----------------13----13-10-10-12-13p12p10-10-8\-|
|-------------------------------------------------------------------------|
|-------------------------------------------------------------------------|


  Gm                      Ab          Fm

                          ~      ~    ~      ~
|-3--3-(3)---(3)--------|---------------------------|
|-3--3-(3)---(3)--------|---------------------------|
|-0--0-(0)---(0)--------|---------------------------|
|-5--5-(5)---(5)----5-5-|-6--6s8-6--5-3--3s5-3--3s5-|
|-----------------------|---------------------------|
|-------------------3-3-|-4--4s6-4--3-1--1s3-1--1s3-|



   ~~      ~                     ~~~
|------------------|---------------------------------------||
|------------------|---------------------------------------||
|-/5---4---5-------|---5----5b7r(5)------5------5b7r(5)----||
|--------------5---|-4---------------4-3-------------------||
|-/6---5---6-------|---------------------------------------||
|--------------6---|-5----5----------5-4----(4)----------4-||


 segundo Verso
  Cm


|---------------------------------------------------|
|-------4-------3-----3-(3)-4-----4-------3-----4---|
|-----5---5---5---5-----------5-----5-(5)---5-----5-|
|---5-------5-------5-----------5-------------5-----|
|-3---------------------(3)------------3------------|
|---------------------------------------------------|

   Fm
|-----------------3-----1-------3-----3-----1---------|
|---1-----1-------1-------1-(1)---1-----1-----1---1---|
|-----1-----1-(1)---1---------------1-----1-----1-----|
|-------3-------------3-------------------------------|
|-----------------------------------------------------|
|-1------------1-------------1------------------------|

   Cm
|-------------------------------------------------------|
|-----4-------3-------3-------4-----4-------3------3----|
|-------5---5---5---5---5-(5)---5-----5-(5)---5-------5-|
|---5-----5-------5---------------5------5------5-(5)---|
|-3-----------------------(3)---------------------------|
|-------------------------------------------------------|

|-----------------------------------------------------------|
|---4------4--------3------3--------4------4----------------|
|-----5-------5-(5)---5-------5-(5)---5-------5-5-5-5-5-3---|
|-5-----5-(5)----5------5-(5)----5------5-(5)---------------|
|-----------------------------------------------6-6-6-6-5-5-|
|-----------------------------------------------------------|

   Fm
|---------------------------------------------|--------------^1-----1--|
|-----------1-------------1-------------1-----|--------------^1-----1--|
|-1-------1---1---------1---1---------1---1---|------------0-^1-----1--|
|-------3-------3-(3)-3-------3-(3)-3-------3-|---3-(3)------^3-----3--|
|-3---3------------3-------------3------------|-3----------------------|
|---------------------------------------------|------------------------|


  Cm
                           <
|---------------------------------------------------|
|---------------------------------------------------|
|-3s5-5-5-x-x-x-x-x-x-x-x----5-5-5-5-5----5-5-5-5-5-|
|-------------x-x-x-x-x-x----5-5-5-5-5----5-5-5-5-5-|
|-------------x-x-x-x-x-x-/6-6-6-6-6-6-/6-6-6-6-6-6-|
|---------------------------------------------------|


  Gtr II
|-------------------------------------------------|
|-------------------------------------------------|
|-5-4-5-4-5-4-5-4-5-4-5-4-5-4-5-4-5-4-5-4-5-4-5\--|
|-------------------------------------------------|
|-6-5-6-5-6-5-6-5-6-5-6-5-6-5-6-5-6-5-6-5-6-5-6\--|
|-------------------------------------------------|


  Gm                  Ab          Fm
                      ~      ~    ~      ~
|-3---3---3---(3)---|---------------------------|
|-3---3---3---(3)---|---------------------------|
|-0---0---0---(0)---|---------------------------|
|-5---5---5---(5)---|-6--6s8-6--5-3--3s5-3--3s5-|
|-------------------|---------------------------|
|-------------------|-4--4s6-4--3-1--1s3-1--1s3-|

|------------------|
|------------------|
|-/5---4---5-------|
|--------------5---|
|-/6---5---6-------|
|--------------6---|

|
|             ~~~
|--------------------------------------------------------------||
|--------------------------------------------------------------||
|---5----5b7r(5)------5------5b7r(5)---------------------------||
|-4---------------4-3------------------------------------------||
|--------------------------------------------------------------||
|-5----5----------5-4----(4)----------------------------4------||
Acordes para:
    Composição: Jimmy Page / John Paul Jones / Robert PlantColaboração e revisão:
    • Lucas Catelli
    • André Peres

    0 comentários

      mostrar mais comentários

      Conseguiu tocar?

      12tocaram2ainda não

      Grave um vídeo tocando Since I´ve Been Loving You e mande pra gente!

      00:00 / 00:00
      outros vídeos desta música
      repetirqualidadeautomática
      Outro vídeos desta música
        00:00 / 00:00
        automática
        OK