Cifra Club

The Science Of Selling Yourself Short

Less Than Jake

Tab de baixo: Versão 2
The Science of Selling Yourself Short
Anthem
tabbed by adam amann

Intro:(2x)
G-----------------------|
D-----77-7--------------|
A-88-8-------------7-10-|
E---------1010-1088-----|


Verse:(4x)
G-----------------------|
D-----77-7--------------|
A-88-8-------------7-10-|
E---------1010-1088-----|


Pre-Chorus
G--------------------------------|
D------7---------------7---------|
A-5-558--------7--5-558--------7-|
E---------5-558-----------5-558--|

G----------------------------|
D-------------25-------------|
A------5--3-33---------5-3-3-|
E-3-336-----------3-336------|

Chorus:(4X)
G------------------|
D-----33-3----2-23-|
A-11-1----33-3-3---|
E------------------|


Verse 2:(4x)
G-----------------------|
D-----77-7--------------|
A-88-8-------------7-10-|
E---------1010-1088-----|


Pre-Chorus
G--------------------------------|
D------7---------------7---------|
A-5-558--------7--5-558--------7-|
E---------5-558-----------5-558--|

G----------------------------|
D-------------25-------------|
A------5--3-33---------5-3-3-|
E-3-336-----------3-336------|

Chorus:(4X)
G------------------|
D-----33-3----2-23-|
A-11-1----33-3-3---|
E------------------|


Bridge:(2x)
G-------------------------|
D---------7---------------|
A-5-5-5-78--7---------7---|
E-------------5-5-5-78--7-|

G--------------------|
D----------------3-2-|
A-1-1--1-11-33-3-----|
E--------------------|


Chorus:(4X)
G------------------|
D-----33-3----2-23-|
A-11-1----33-3-3---|
E------------------|


End:(2x)
G-----------------------|
D-----77-7--------------|
A-88-8-------------7-10-|
E---------1010-1088-----|   After the 2nd time Roger sorta just jams for a couple riffs.

This song isn't very difficult and it's a really cool tune. Just listen to the song for 
timing and i promise you that this tab is correct. I've seen LTJ live 4 times and i've 
incredibly close to make for absolute sure because i love this song so much.
00:00 / 00:00
Outros vídeos desta música
Repetir
Outros vídeos desta música
Composição de Vinnie Fiorello
116 exibições

0 comentários

Ver todos os comentários

Conseguiu tocar?

0 Tocaram 0 Ainda não

Grave um vídeo tocando The Science Of Selling Yourself Short e nos envie!

00:00 / 00:00

Cifra Club Pro

Aproveite o Cifra Club com benefícios exclusivos e sem anúncios
Cifra Club Pro
Aproveite o Cifra Club com benefícios exclusivos e sem anúncios
OK