Cifra Club

Aprenda

Somebody Else's Song

Lifehouse

Cifra: Principal (violão e guitarra)
Tom: D
Intro:  (This is actually pretty cool sounding, play this 2 times)
 
E|--------------------------------------------------------------|
B|-5--5--5--5-5-5-5--5--5--5-5-5-5--5--5--5-5-5-5--5--5--5-5-5--|
G|-4--4--4--4-4-4-4--4--4--4-4-4-4--4--4--4-4-4-4--4--4--4-4-4--|
D|-6--6--6--6-6-6p5--5--5--5-5-5h6--6--6--6-6-6p5--5--5--5-5-5--|
A|--------------------------------------------------------------|
E|--------------------------------------------------------------|
 
(toque toda a tablatura acima duas vezes)
 
Bm      A2          Em        Bm       A2     Em
  Can't change this feeling,    I'm way out of touch.
Bm      A2         Em        Bm   A2      Em
  Can't change this meaning,    It means so much.
Bm      A2      Em         Bm      A2      Em
  Never felt so lonely,      Never felt so good.
Bm      A2     Em   Bm      A2    Em
  Can't be the only one, misunderstood.
     G  (strum once)
Well I remind myself of somebody else, I'm..
 
CHORUS:  (Use distortion)
 
(Here's that fill riff, on the E5 chord at the end of some lines)
 
   E5 (riff)
E|-----------------------------------|
B|-----------------------------------|
G|-13--13--13--13-13-12--12--12--12--|
D|--x---x---x---x--x--x---x---x---x--|
A|-11--11--11--11-11-10--10--10--10--|
E|-----------------------------------|
 
B5      A5       G5      A5       B5       A5    E5 (riff)
Feelin, like I'm chasin' like I'm facin' myself alone.
         B5       A5     G5            A5   
I've got somebody else's thoughts in my head, 
  B5        A5    E5 (riff)   B5        A5    E5 (riff)
I want some of myyyyy own,  I want some of myyyyyy own,
  B5        A5    E5 (stop)
I want some of my own.
 
 
INTERLUDE:  (Toque a intro, junto com o violino. Toque uma vez a mais dessa vez)
 
E|--------------------------------------------------------------|
B|-5--5--5--5-5-5-5--5--5--5-5-5-5--5--5--5-5-5-5--5--5--5-5-5--|
G|-4--4--4--4-4-4-4--4--4--4-4-4-4--4--4--4-4-4-4--4--4--4-4-4--|
D|-6--6--6--6-6-6p5--5--5--5-5-5h6--6--6--6-6-6p5--5--5--5-5-5--|
A|--------------------------------------------------------------|
E|--------------------------------------------------------------|
 
VERSE 2:  (toque como o verso 1)
 
Can you see me up here, would you bring me back down?
Cause I've been living to see my fears as they fall to the ground.
Cause I remind myself of somebody else I'm..
 
CHORUS:  (toque como os outros chorus)
 
Feelin' like I'm chasin' like I'm facin' myself alone.l
I've got somebody else's thoughts in my head, 
I want some of myyyyyy own, I want some of myyyyy own.
I want some of myyyyyy owwwwwwn.
 
GUITAR SOLO:  (tocado sobre a intro)  (b = bend up)
E|-----------------------------------------------------------------------------|
B|-----------------------------------------------------------------------------|
G|-9b11----7-9-9-9--7b9---7---9b11----7-9-9-9--7b9-7---------------------------| 
D|-----------------------------------------------------------------------------|
A|-----------------------------------------------------------------------------|
E|----------------------------------------------------0--1-0--1-0-1-0-1-0-1-0--|
 
VERSE 3:  (toque como os outros versos)
 
Am I hiding behind my doubts, are they hiding behind me?
I'm closer to finding out, it doesn't mean anything.
I remind myself of somebody else I'm...
 
GUITAR SOLO:  (toque sobre o solo:  B5  A5  G5  A5    B5  A5  E5)
 
   B5   A5     G5    A5   B5          A5     E5 (riff)
E|------------------------------------------------|    
B|------10-12-12------10-12-------------10-12-----|
G|-11--------------11-------11---11-11------------|
D|------------------------------------------------|
A|------------------------------------------------|
E|------------------------------------------------|
 
(toque o solo e a progress]ao juntos)
 
CHORUS:  (toque como os chorus anteriores)
 
B5      A5       G5      A5       B5       A5    E5 (riff)
Feelin, like I'm chasin' like I'm facin' myself alone.
         B5       A5     G5            A5   
I've got somebody else's thoughts in my head, 
  B5        A5    E5 (riff)   B5        A5    E5 (riff)
I want some of myyyyy own,  I want some of myyyyyy own,
  B5        A5    E5 (stop)
I want some of my own.
 
 
OUTRO:  (toque igual a introdução)
E|--------------------------------------------------------------|
B|-5--5--5--5-5-5-5--5--5--5-5-5-5--5--5--5-5-5-5--5--5--5-5-5--|
G|-4--4--4--4-4-4-4--4--4--4-4-4-4--4--4--4-4-4-4--4--4--4-4-4--|
D|-6--6--6--6-6-6p5--5--5--5-5-5h6--6--6--6-6-6p5--5--5--5-5-5--|
A|--------------------------------------------------------------|
E|--------------------------------------------------------------|
Composição de Jason Wade
Colaboração e revisão:
  • Tiago Teruya
5.877 exibições
    • ½ Tom
    • A
    • Bb
    • B
    • C
    • Db
    • D
    • Eb
    • E
    • F
    • F#
    • G
    • Ab
  • Adicionar à lista

    0 comentários

    Mostrar mais comentários

    Conseguiu tocar?

    0 Tocaram 0 Ainda não

    Grave um vídeo tocando Somebody Else's Song e mande pra gente!

    00:00 / 00:00
    outros vídeos desta música
    repetir qualidade Automático
    Outros vídeos desta música
    00:00 / 00:00
    Automático

    Cifra Club Pro

    Aproveite o Cifra Club com benefícios exclusivos e sem anúncios
    Cifra Club Pro
    Aproveite o Cifra Club com benefícios exclusivos e sem anúncios
    OK